Oops, an error
Loading. Please wait.

Sucka Nigga Bass Tab

4,126 views 18 this week
1 commentread comment
1 2 3 4 5
worth learning
x 3
add to favorites
launch autoscroll
font size
0
reset
guitar tuner
Tab Pro tools
  • play this tab
  • loop segment
  • change instrument
  • show fretboard
  • metronome
Autoscroll
slow
fast
+/-
esc
set tempo
stop
A Tribe Called Quest
"Sucka Nigga"
bassist-Ron Carter

I submitted this one before, but I messed up.  Not enough brain cells.  my 
fault.

Standard tuning

G------10-10---8-8-8-------11-----13----15------17\-------------------
D----10-------8----------11-----13----15------------------------------
A--8--------6-----------9-----11----13----13-15-----------------------
E---------------------------------------------------------------------

Repeated throughout the song, some notes added or subtracted according to 
taste.

s.mcmahon
lowend420@hotmail.com
comments
We did not receive enough feedback on this tab! Please rate:
print report bad tab
1 2 3 4 5
1 comment total.
0 reply
tallicafan888 wrote on June 30 2015, 02:58 pm

Pretty good. I think there are a few things I'd change though.

I'd add those two extra notes at the start.


G------10-10-------8-8-8----
D----10-----10---8-------8--
A--8-----------6------------
E---------------------------


And I'd remove this note.


G-----17\-------------------
D---------------------------
A--13-----------------------
E---------------------------

I want to post or [tab]
guest
You may want to rate the tab now too:
select rating
Please do not post tabs as comments. Select "correction" instead!