Oops, an error
Loading. Please wait.

We The People tab

607 views 6 this week
no commentswrite comment
1 2 3 4 5
2 more votes to show rating
add to favorites
×
Save as Personal and add changes to this tab that will be seen only by you. Learn more ›
×
You can save this tab as Personal to edit and correct it or add notes. All changes will be seen only by you. Learn more »
launch autoscroll
font size
0
reset
how to read this tab
guitar tuner
edit
Autoscroll
slow
fast
+/-
esc
set tempo
stop
Author
Difficulty
About this tab version
Outline of the main bass line. Was this info helpful? Yes No
[Intro]
e|------------|------------|------------|-------------|-------------|------------|
B|------------|------------|------------|----0-----0--|-------------|------------|
G|------------|----1-----1-|------------|--1-----1----|----2-----2--|----1-----1-|
D|----1-----1-|--2-----2---|----1-----1-|2-----------2|0-4-----4---4|--2-----2---|
A|--2-----2---|4-----------|--2-----2---|-------------|-------------|4----------4|
E|4-----------|------------|4-----------|-------------|-------------|------------|

[Riff A]
e|------------|------------|
B|------------|------------|
G|------------|----1-----1-|
D|----1-----1-|--2-----2---|
A|--2-----2---|4-----------|
E|4-----------|------------|

[Riff B]
e|-------------|-------------|------------|
B|----0-----0--|-------------|------------|
G|--1-----1----|----2-----2--|----1-----1-|
D|2-----------2|0-4-----4---4|--2-----2---|
A|-------------|-------------|4----------4|
E|-------------|-------------|------------|

[Intro]
Riff A
Riff B

[Verse]
Riff A
We don't believe you 'cause we the people
Are still here in the rear, ayo, we don't need you
You in the killing-off-good-young-nigga mood
When we get hungry we eat the same fucking food
The ramen noodle
Your simple voodoo is so maniacal, we're liable to pull a juju

Riff B
The irony is that this bad bitch in my lap
She don't love me, she make money, she don't study that
She gon' give it to me, ain't gon' tell me run it back

Riff A
She gon' take the brain to wetter plains, she spit on that
The doors have signs with, don't try to rhyme with
VH1 has a show that you can waste your time with
Guilty pleasures take the edge off reality
And for a salary I'd probably do that shit sporadically
The OG Gucci boots are smitten with iguanas
The IRS piranha see a nigga gettin' commas

Riff B
Niggas in the hood living in a fishbowl
Gentrify here, now it's not a shit hole
Trendsetter, I know, my shit's cold

Riff A
Ain't settling because I ain't so bold but ay

[Hook]
All you Black folks, you must go
All you Mexicans, you must go
And all you poor folks, you must go

Riff B
Muslims and gays, boy, we hate your ways

Riff A
So all you bad folks, you must go

[Bridge]
Riff A
The fog and the smog of news media that logs
False narratives of Gods that came up against the odds
We're not just nigga rappers with the bars
It's kismet that we're cosmic with the stars

[Verse 2]
Riff A
You bastards overlooking street art
Better yet, street smarts but you keep us off the charts

Riff B
So motherfuck your numbers and your statisticians
Fuck y'all know about true competition?
That's like a AL pitcher on deck talking about he hittin'

Riff A
The only one who's hitting are the ones that's currently spittin'
We got your missy smitten rubbing on her little kitten
Dreaming of a world that's equal for women with no division
Boy, I tell you that's vision
Like Tony Romo when he hitting Witten
The Tribe be the best in they division
Shaheed Muhammad cut it with precision

Riff B
Who can come back years later, still hit the shot?
Still them tryna move we off the fucking block
Babylon, bloodclaat

Riff A
Two pon yuh headtop

[Hook]
All you Black folks, you must go
All you Mexicans, you must go
And all you poor folks, you must go

Riff B
Muslims and gays, boy, we hate your ways
So all you bad folks, you must go


There are pauses in the riff throughout, listen to the song to find where these are.

************************************

            
            
Suggest correction
Creating personal tab
Creating personal tab
You can edit any tab online and save it as your Personal.

You can edit, replace or remove any tab part or add personal notes – all changes will be seen only by you.

Personal tabs can be accessed anytime from any device, even offline.
Learn more »
Give kudos to tab author, rate the tab!
1 2 3 4 5
comments
print report bad tab
guest
You may want to rate the tab now too:
select rating
Wanna post a correction for this tab? Suggest correction