Oops, an error
Loading. Please wait.

Anchor End Tab

version 3
version 3

Whole song

Interactive

287 views 1 this week
no commentswrite comment
1 2 3 4 5
please rate
add to favorites
launch autoscroll
font size
0
reset
how to read this tab
guitar tuner
Tab Pro tools
  • play this tab
  • loop segment
  • change instrument
  • show fretboard
  • metronome
×
Best way to learn
"Anchor End"
Autoscroll
slow
fast
+/-
esc
set tempo
stop
Difficulty
Tuning
novice
D A D G B E
Anchor End
A Wilhelm Scream
Mute Print

Tabbed by matt_tamburrino@yahoo.com

i have not found one tab that is even remotely close, so i took 5 minutes and typed this 
There are TWO guitars and this song is in stereo so just take an ear bud out to hear it clearly.

*-palm mute
/-slide
h-hammer-om
p-pull-off

Intro
Guitar One
e-----------------------------------------------------|
B--------------------------------------10/11/10-11-8--|
G--10-----7-8-7------10-10/12/10-7/8/7----------------|
D-----7-8-------8-7-----------------------------------|
A-----------------------------------------------------|
D-----------------------------------------------------|
        *   *   *   *   *   *   *   *

Guitar Two
e-----------------------------------------------------------|
B-----------------------------------------------------------|
G-----------10-12-10-----------8/10/8-----------------------|
D--12-10-12----------12-10--12--------8/10/8-10/12/10-12-8--|
A-----------------------------------------------------------|
D-----------------------------------------------------------|
    *  *  *  *  *  *  *  *
Played twice then

Guitar One
e--------------------------------------------------|
B--------------------------------------------------|
G--10-----7-8-7------------------------------------|
D-----7-8-------8/10-8-8--8-8-8--8-8-8--8-8-8-8-8--|
A--------------------------------------------------|
D--------------------------------------------------|
        *   *   *   *   *   *   *
Guitar Two
e---------------------------|
B---------------------------|
G-----------10-12-10--------|
D--12-10-12----------12-10--|
A---------------------------|
D---------------------------|
    *  *  *  *  *  *  *  *

Main Riff
Guitar One
e------------------------------------------------|
B------------------------------------------------|
G------------------------------------------------|
D--6-6-5----------------------------------6-6-5--|
A--6-6-5----------------------------------6-6-5--|
D--6-6-5----------------------------------6-6-5--|

Guitar Two
e----------------------------------------------------------------------------------|
B----------------------------------------------------------------------------------|
G----------------------------------------------------------------------------------|
D--6-6-5--8-8-8-8-10-10-10-10-13-13-12-12--6-6-5--8-8-8-8-10-10-10-10-13-13-12-12--|
A--6-6-5-----------------------------------6-6-5-----------------------------------|
D--6-6-5-----------------------------------6-6-5-----------------------------------|
          * * * *  *  *  *  *  *  *  *            * * * *  *  *  *  *  *  *  *
Guitar One
e--------------------------------------------------------------------|
B--------------------------------------------------------------------|
G--12----12----12----12----12---------7---7h8p7----------------------|
D-----12----12----12----12----12--8-8---8-------8/10-7-7-10-10-10-10-|
A----------------------------------------------------5-5-8--8--8--8--|
D----------------------------------------------------5-5-8--8--8--8--|
                                  * *   *                   *  *
Guitar Two
e----------------------------------------------|
B----------------------------------------------|
G----------------------------------------------|
D--1-1-1-1-1-1-1-1-10-10-10-10-7-7-10-10-10-10-|
A--1-1-1-1-1-1-1-1-10-10-10-10-5-5-8--8--8--8--|
D--1-1-1-1-1-1-1-1-10-10-10-10-5-5-8--8--8--8--|
                                      *  *

Fill
Guitar One
e-----------------|
B------6-------6--|
G----7-------7----|
D--5-------8------|
A--------6--------|
D-----------------|


Verse
Guitar One (Listen to the rhythm)
e---------------------------------------------------------------------|
B--6-6-6-6-6-6-6-6-6-6-6-6-6-6-6-6------------------------------------|
G--7-7-7-7-7-7-7-7---------------------7---8p7----------7---8p7-------|
D--8-8-8-8-8-8-8-8-7-7-7-7-8-8-8-8-8-8---8-----8----8-8---8-----8-----|
A--6-6-6-6-6-6-6-6-5-5-5-5-5-5-5-5---------------10---------------10--|
D------------------5-5-5-5-5-5-5-5------------------------------------|
                                   * *   *          * *   *
Guitar Two
e-------------------------------------------------------------------|
B--6-6-6-6-6-6-6-6-6-6-6-6-6-6-6-6----------------------------------|
G--7-7-7-7-7-7-7-7--------------------------------------------------|
D--8-8-8-8-8-8-8-8-7-7-7-7-8-8-8-8-3-3-3-3-3-3-3-3-3-3-3-3-3-3-3-3--|
A--6-6-6-6-6-6-6-6-5-5-5-5-5-5-5-5-3-3-3-3-3-3-3-3-1-1-1-1-1-1-1-1--|
D------------------5-5-5-5-5-5-5-5-3-3-3-3-3-3-3-3-1-1-1-1-1-1-1-1--|

Guitar One
e----------------------|
B----------------------|
G------7---8p7---------|
D--8-8---8-----8/10-8--|
A----------------------|
D----------------------| Second time through play this after chords
   * *   *

Chorus
Both Guitars
e---------------------------------------------------|
B---------------------------------------------------|
G----------------------------------8-8-8-8-7-7-7-7--|
D--3-3-3-3-3-3-3-3-5-5-5-5-8-8-8-8-8-8-8-8-8-8-8-8--|
A--3-3-3-3-3-3-3-3-5-5-5-5-8-8-8-8-6-6-6-6-6-6-6-6--|
D--3-3-3-3-3-3-3-3-5-5-5-5-8-8-8-8------------------|

Bridge
Guitar One
e---------------------------------------------------|
B---------------------------------------------------|
G--------------------------------------10-----------|
D-----12-10-12----12-10-12----12-10-12----12-10-12--|
A--13----------13----------13-----------------------|
D---------------------------------------------------| Play 8 times muted, 4 times not

Guitar Two
e---------------------------------------------------|
B---------------------------------------------------|
G---------------------------------------------------|
D---------------------------------------------------|
A--12-13-10-13-12-13-10-13-12-13-10-13-12-13-10-13--|
D---------------------------------------------------| Play 8 times muted, 4 times not

Bridge 2
Both Guitars
e-------------------------------------------------------------------|
B-------------------------------------------------------------------|
G-------------------------------------------------------------------|
D--5-5-5-5-5-5-5-5-3-3-3-3-3-3-3-3-3-3-3-3-3-3-3-3-3-3-3-3-3-3-3-3--|
A--5-5-5-5-5-5-5-5-3-3-3-3-3-3-3-3-1-1-1-1-1-1-1-1-1-1-1-1-1-1-1-1--|
D--5-5-5-5-5-5-5-5-3-3-3-3-3-3-3-3-1-1-1-1-1-1-1-1-1-1-1-1-1-1-1-1--|


Breakdown
Gutar One
e-------------------------------------------------------------------|
B-------------------------------------------------------------------|
G------7-------7-------7-------7-------7-------7-------7-------7----|
D----8---8---8---8---8---8---8---8---8---8---8---8---8---8---8---8--|
A--6-------6-------6-------6-------6-------6-------6-------6--------|
D-------------------------------------------------------------------|

Guitar Two
e-----------------------------------------------------|
B-----------------------------------------------------|
G-----------------------------------------------------|
D--3---------------3---------------3---------------3--|
A--1---------------3---------------1---------------3--|
D--1---------------3---------------1---------------3--|

Guitar One
e--------------------------------------|
B--------------------------------------|
G--7-7-7-7--7-7-7-7--7-7-7-7--7-7-7-7--|
D--8-8-8-8--8-8-8-8--8-8-8-8--8-8-8-8--|
A--6-6-6-6--6-6-6-6--6-6-6-6--6-6-6-6--|
D--------------------------------------|

Breakdown 2
Guitar One
e--------------------|
B--------------------|
G--10-----7-8-7------|
D-----7-8-------8-7--|
A--------------------|
D--------------------|
    * * * * * * * *
Guitar Two
e---------------------------|
B---------------------------|
G-----------10-12-10--------|
D--12-10-12----------12-10--|
A---------------------------|
D---------------------------| Play once solo, then 3 times with guitar one
    *  *  *  *  *  *  *  *
Guitar One
e------------------------------------------------------|
B------------------------11/13/11---------8------------|
G---------7/8/7-10/12/10----------10/12-8---10-8-7-----|
D--8/10/8------------------------------------------10--|
A------------------------------------------------------|
D------------------------------------------------------|

Guitar Two
e---------------------------------------------------|
B---------------------------------------------------|
G--7/8/7-8/10/8-------------------------------------|
D---------------8/10/8-12/13/12---------------------|
A-------------------------------12/13-10-5-3--------|
D--------------------------------------------8-7-3--|

Outro
Guitar One
e-------------------------------------------|
B-------------------------------------------|
G--7-7-7-7-7-7-8-8-7-7-7-7-7-7-8-8----------|
D----------------------------------5-5-5-5--|
A----------------------------------5-5-5-5--|
D----------------------------------5-5-5-5--|
                                   * * *
Guitar Two
e-------------------------------------------|
B-------------------------------------------|
G-------------------------------------------|
D--1-1-1-1-3-3-3-3-1-1-1-1-3-3-3-3-5-5-5-5--|
A--1-1-1-1-3-3-3-3-1-1-1-1-3-3-3-3-5-5-5-5--|
D--1-1-1-1-3-3-3-3-1-1-1-1-3-3-3-3-5-5-5-5--|
                                   * * *

Intro x 1
Main Riff x 1
Fill x 1
Verse x 2
Chorus x 2
Main Riff x 1
Verse x 2
Chorus x 2
Bridge x 1
Bridge 2 x 2
Breakdown x 1
Chorus x 2
Bridge 2 x 2
Breakdown 2 x 1
Outro x 1
comments
We did not receive enough feedback on this tab! Please rate:
print report bad tab
1 2 3 4 5
I want to post or [tab]
guest
You may want to rate the tab now too:
select rating
Please do not post tabs as comments. Select "correction" instead!