Oops, an error
Loading. Please wait.

Dreaming Of Throwing Up tab

version 1
version 1

Whole song

Interactive

1,572 views 1 this week
no commentswrite comment
1 2 3 4 5
x 3
add to favorites
×
Save as Personal and add changes to this tab that will be seen only by you. Learn more ›
×
You can save this tab as Personal to edit and correct it or add notes. All changes will be seen only by you. Learn more »
launch autoscroll
font size
0
reset
how to read this tab
guitar tuner
edit
Autoscroll
slow
fast
+/-
esc
set tempo
stop
Artist: A Wilhelm Scream
Track: Dreaming Of Throwing Up
Album: Mute Print
Released: 2004
Label: Nitro Records

Corrections welcomed. contact: Jase@pmzine.co.uk

Key:
|---| ~ this is a section which is palm muted
  h   ~ hammer on
  ~   ~ let note ring
  p   ~ pull off
  / \  ~ slide from the note before the slash to the note after it. if no number after, just slide down the neck

0:00
Lead
e---------------------------------------------------------------------------------|
B---------------------------------------------------------------------------------|
G-10--10-10-10--10-10--10-10-10-10--10-10-10--10-10-10--10-10--10-10-10-10--10-10-|
D--x---x--x--x---x--x---x--x--x--x---x--x--x---x--x--x---x--x---x--x--x--x---x--x-|
A--8---8--8--8---8--8---8--8--8--8---8--8--8---8--8--8---8--8---8--8--8--8---8--8-|
D---------------------------------------------------------------------------------|

0:05
Lead
e----------------------------------------------------------------------------|
B----------------------------------------------------------------------------|
G-10--10-10-10--10-10--10-10-10-10--10-10--10--10-10-10--10-10--10-10-10-10--|
D--x---x--x--x---x--x---x--x--x--x---x--x---x---x--x--x---x--x---x--x--x--x--|
A--8---8--8--8---8--8---8--8--8--8---8--8---8---8--8--8---8--8---8--8--8--8--|
D--7---7--7--7---7--7---7--7--7--7---7--7---8---8--8--8---8--8---8--8--8--8--|

0:09
Lead
e--------------------------------------------------------------------------------------------------|
B--------------------------------------------------------------------------------------------------|
G-10--10--10-10--10--10--10-10--10--10-----------10-10-10-10--10--10-10-10-10--10-10-10--10-10-10--|
D--0---0---0--0---0---0---0--0---0---0--0-0-0-0---0--0--0--x---x---x--x--x--x---x--x--x---x--x--x--|
A--0---0---0--0---0---0---0--0---0---0--0-0-0-0---0--0--0--8---8---8--8--8--8---8--8--8---8--8--8--|
D--0---0---0--0---0---0---0--0---0---0--0-0-0-0---0--0--0--7---7---7--7--7--7---8--8--8---8--8--8--|
                                      |------------------------------------------------------------|

0:19
e-----------------------------------------------------------------------------------------------------------------|
B-----------------------------------------------------------------------------------------------------------------|
G-10~--10/12-----3---------------3--x-x-x-x------------------33333-x-x-x-----------------------7-x-3--3-3--3-3-3--|
D--x----x/10----03--0--0--0-0-0--3--x-x-x-x--0--0--0-0-0-0---33333-x-x-x-0-0-0--0-0-0-0--5-x-x-7-x-3--3-3--3-3-3--|
A--8~---8/10----01--0--0--0-0-0--1--x-x-x-x--0--0--0-0-0-0---11111-x-x-x-0-0-0--0-0-0-0--5-x-x-5-x-1--1-1--1-1-1--|
D---------------0---0--0--0-0-0--------------0--0--0-0-0-0---------------0-0-0--0-0-0-0--5-x-x--------------------|
                                   |-------|      |-------| |-----------------------------------------------------|
0:31
e-----------------------------------------------------------------------------------------------------------|
B-----------------------------------------------------------------------------------------------------------|
G----------------------------------------3--3-3--3-3-3--------------------------------3--3-3--3-3-3--3-3-3--|
D-3-3--3-3-3--5--5-5--5-5-5--0--0--0-0-0-3--3-3--3-3-3--3-3--3--3-3-3--5-5--5--5-5-5--3--3-3--3-3-3--3-3-3--|
A-3-3--3-3-3--5--5-5--5-5-5--0--0--0-0-0-1--1-1--1-1-1--3-3--3--3-3-3--5-5--5--5-5-5--1--1-1--1-1-1--1-1-1--|
D-3-3--3-3-3--5--5-5--5-5-5--0--0--0-0-0----------------3-3--3--3-3-3--5-5--5--5-5-5------------------------|

0:40
Lead
e------------------------------------------------------------|
B------------------------------------------------------------|
G----5-7----5-7----5-7----5-7----5-7---5-7-----5-7----5-7----|
D-7~-----7~-----7~-----7~-----7~-----7~-----7~-----7~-----7~-|
A------------------------------------------------------------|
D------------------------------------------------------------|

0:40
Rhythm
e---5-6----5-6----5-6----5-6---5-6----5-6----5-6----5-6----|
B-6~----6~-----6~-----6~-----6~----6~-----6~-----6~-----6~-|
G----------------------------------------------------------|
D----------------------------------------------------------|
A----------------------------------------------------------|
D----------------------------------------------------------|

0:57
Lead - Repeat 4x
e--------------------------|
B--------------------------|
G-----5---5---7-5-3--------|
D-3-3---3---3-------7~-----|
A--------------------------|
D--------------------------|

0:57
Rhythm
e-----5---5---6-5-----|
B-6-6---6---6-----8-6-|
G---------------------|
D---------------------|
A---------------------|
D---------------------|

1:05
e-------------------------------------------------------------------------------------------|
B-------------------------------------------------------------------------------------------|
G---------------------------------------2-2--2-2-2--2-2-2--2-2-2--3-3--3-3-3--3-3-3--3-3-3--|
D--0~---0~---0~--x-x--0~---0~---0~--x-x-2-2--2-2-2--2-2-2--2-2-2--3-3--3-3-3--3-3-3--3-3-3--|
A--0~---0~---0~--x-x--0~---0~---0~--x-x-0-0--0-0-0--0-0-0--0-0-0--1-1--1-1-1--1-1-1--1-1-1--|
D--0~---0~---0~--x-x--0~---0~---0~--x-x-----------------------------------------------------|

1:14
e-----------------------------------------------------------------------------------------------|
B-----------------------------------------------------------------------------------------------|
G--3---------------3--x-x-x-x------------------3-x-x-x-----------------------7-x-3--3-3--3-3-3--|
D--3--0--0--0-0-0--3--x-x-x-x--0--0--0-0-0-0---3-x-x-x-0-0-0--0-0-0-0--5-x-x-7-x-3--3-3--3-3-3--|
A--1--0--0--0-0-0--1--x-x-x-x--0--0--0-0-0-0---1-x-x-x-0-0-0--0-0-0-0--5-x-x-5-x-1--1-1--1-1-1--|
D-----0--0--0-0-0--------------0--0--0-0-0-0-----------0-0-0--0-0-0-0--5-x-x--------------------|
                                    |-----------------------------------------------------------|
1:22
Lead Repeat 14x
e--------------|------------|
B-8-8-6-6-5-5--|-8-8-8^-8---|
G-5-5-5-5-5-5--|-5-5-5^-5---|
D--------------|------------|
A--------------|------------|
D--------------|------------|

1:22
Rhythm
pause after first sectionuntil 1:26
             x4              x4             x4                 x4
e--------|--------------|---------------|---------------|--------------|
B--------|--------------|---------------|---------------|--------------|
G--------|2--2-2-2--2-2-|---------------|-2--2-2-2--2-2-|--------------|
D-3------|2--2-2-2--2-2-|-0--0-0-0--0-0-|-2--2-2-2--2-2-|-0--0-0-0--0-0|
A-3------|0--0-0-0--0-0-|-0--0-0-0--0-0-|-0--0-0-0--0-0-|-0--0-0-0--0-0|
D-3------|--------------|-0--0-0-0--0-0-|---------------|-0--0-0-0--0-0|

1:43
e---------------------------------------------------------------------------------------------------------|
B---------------------------------------------------------------------------------------------------------|
G-3-3-3-3-3-3----------------3--x-x-x-x------------------3-x-x-x-----------------------7-x-3--3-3--3-3-3--|
D-3-3-3-3-3-3-0--0-0--0-0-0--3--x-x-x-x--0--0--0-0-0-0---3-x-x-x-0-0-0--0-0-0-0--5-x-x-7-x-3--3-3--3-3-3--|
A-1-1-1-1-1-1-0--0-0--0-0-0--1--x-x-x-x--0--0--0-0-0-0---1-x-x-x-0-0-0--0-0-0-0--5-x-x-5-x-1--1-1--1-1-1--|
D-------------0--0-0--0-0-0--------------0--0--0-0-0-0-----------0-0-0--0-0-0-0--5-x-x--------------------|
                                      |-------------------------------------------------------------------|

1:51
e---------------------------------------------------------------------------------|
B---------------------------------------------------------------------------------|
G-10--10-10-10--10-10--10-10-10-10--10-10-10--10-10-10--10-10--10-10-10-10--10-10-|
D--x---x--x--x---x--x---x--x--x--x---x--x--x---x--x--x---x--x---x--x--x--x---x--x-|
A--8---8--8--8---8--8---8--8--8--8---8--8--8---8--8--8---8--8---8--8--8--8---8--8-|
D---------------------------------------------------------------------------------|

1:55
e----------------------------------------------------------------------------|
B----------------------------------------------------------------------------|
G-10--10-10-10--10-10--10-10-10-10--10-10--10--10-10-10--10-10--10-10-10-10--|
D--x---x--x--x---x--x---x--x--x--x---x--x---x---x--x--x---x--x---x--x--x--x--|
A--8---8--8--8---8--8---8--8--8--8---8--8---8---8--8--8---8--8---8--8--8--8--|
D--7---7--7--7---7--7---7--7--7--7---7--7---8---8--8--8---8--8---8--8--8--8--|

1:59
e--------------------------------------------------------------------------------------------------------------------|
B--------------------------------------------------------------------------------------------------------------------|
G----------------------------------------3--3-3--3-3-3--------------------------------3--3-3--3-3-3--3-3-3-----------|
D-3-3--3-3-3--5--5-5--5-5-5--0--0--0-0-0-3--3-3--3-3-3--3-3--3--3-3-3--5-5--5--5-5-5--3--3-3--3-3-3--3-3-3--x-x-x-0--|
A-3-3--3-3-3--5--5-5--5-5-5--0--0--0-0-0-1--1-1--1-1-1--3-3--3--3-3-3--5-5--5--5-5-5--1--1-1--1-1-1--1-1-1--x-x-x-0--|
D-3-3--3-3-3--5--5-5--5-5-5--0--0--0-0-0----------------3-3--3--3-3-3--5-5--5--5-5-5------------------------x-x-x-0--|


2:16
Lead
e--5-5---5-----5-5---5-----5-5---5-----5-5---5----5-5-5-5-----5------5~-|
B------6---6-------6---6-------6---6-------6---6----------6-----6-------|
G------------5-----------5-----------5-----------5-----------5-----5----|
D-----------------------------------------------------------------------|
A-----------------------------------------------------------------------|
D-----------------------------------------------------------------------|

2:22
Rhythm
e--------------------------|
B--------------------------|
G-3-3-3-3-3-3--------------|
D-3-3-3-3-3-3-0-0-0-0-0-0~-|
A-1-1-1-1-1-1-0-0-0-0-0-0~-|
D-------------0-0-0-0-0-0~-|
 |-------------------------|

2:24
Lead
e--5-5---5-----5-5---5-----5-5---5-----5-5---5----5-5-5-5-----5---------|
B------6---6-------6---6-------6---6-------6---6----------6-----6----6~-|
G------------5-----------5-----------5-----------5-----------5-----5----|
D-----------------------------------------------------------------------|
A-----------------------------------------------------------------------|
D-----------------------------------------------------------------------|

2:29
Rhythm
e--------------------------|
B--------------------------|
G-3-3-3-3-3-3--------------|
D-3-3-3-3-3-3-0-0-0-0-0-0~-|
A-1-1-1-1-1-1-0-0-0-0-0-0~-|
D-------------0-0-0-0-0-0~-|
 |-------------------------|

2:31
Lead                        x7    x2    x4    x2    x2    x4    x4   x4    x2    x2    x6    x2    x3    x1    x2    x1     x7
e-5-5---5-----5-5---5----|5----|6----|5----|6----|8----|5----|6----|5----|8----|6----|5----|6----|5----|6----|8----|6----|5----|-5~--|
B-----6---6-------6---6--|--6--|--6--|--6--|--6--|--6--|--6--|--6--|--6--|--6--|--6--|--6--|--6--|--6--|--6--|--6--|--6--|--6--|-----|
G-----------5-----------5|----5|----5|----5|----5|----5|----5|----5|----5|----5|----5|----5|----5|----5|----5|----5|----5|----5|-----|
D------------------------|-----|-----|-----|-----|-----|-----|-----|-----|-----|-----|-----|-----|-----|-----|-----|-----|-----|-----|
A------------------------|-----|-----|-----|-----|-----|-----|-----|-----|-----|-----|-----|-----|-----|-----|-----|-----|-----|-----|
D------------------------|-----|-----|-----|-----|-----|-----|-----|-----|-----|-----|-----|-----|-----|-----|-----|-----|-----|-----|

2:35
Rhythm - repeat as necessary
e|---|--|--|--|----|--|--|--|--|--|--|--|---|
B|---|--|--|--|----|--|--|--|--|--|--|--|---|
G|-10|-5|-7|-2|-10-|-5|-7|-2|-3|-5|-7|-5|-3-|
D|--x|-5|-7|-2|--x-|-5|-7|-2|-3|-5|-7|-5|-3-|
A|--8|-3|-5|-0|--8-|-3|-5|-0|-1|-3|-5|-3|-1-|
D|---|--|--|--|----|--|--|--|--|--|--|--|---|


3:09
e-------------------------------------------------------------------------------------------------------------------------|
B-------------------------------------------------------------------------------------------------------------------------|
G-3-3-3-------3-3-3-------3-3-3-----------5-5-5-------5-5-5-------5-5-5-----------7-7-7-------7-7-7-------7-7-7-----------|
D-3-3-3-0-0-0-3-3-3-0-0-0-3-3-3-0-0-0--0--5-5-5-0-0-0-5-5-5-0-0-0-5-5-5-0-0-0--0--7-7-7-0-0-0-7-7-7-0-0-0-7-7-7-0-0-0--0--|
A-1-1-1-0-0-0-1-1-1-0-0-0-1-1-1-0-0-0--0--3-3-3-0-0-0-3-3-3-0-0-0-3-3-3-0-0-0--0--5-5-5-0-0-0-5-5-5-0-0-0-5-5-5-0-0-0--0--|
D-------0-0-0-------0-0-0-------0-0-0--0--------0-0-0-------0-0-0-------0-0-0--0--------0-0-0-------0-0-0-------0-0-0--0--|
       |-----|     |-----|     |--------|      |-----|     |-----|     |--------------------------------------------------|

3:24
e-------------------------------------------|
B-------------------------------------------|
G-3-3-3--------3-3-3--------3-3-3-----------|
D-3-3-3-0-0-0--3-3-3-0-0-0--3-3-3-0-0-0--0--|
A-1-1-1-0-0-0--1-1-1-0-0-0--1-1-1-0-0-0--0--|
D-------0-0-0--------0-0-0--------0-0-0--0--|
       |-----|      |-----|      |----------|

            
            
Suggest correction
Creating personal tab
Creating personal tab
You can edit any tab online and save it as your Personal.

You can edit, replace or remove any tab part or add personal notes – all changes will be seen only by you.

Personal tabs can be accessed anytime from any device, even offline.
Learn more »
Give kudos to tab author, rate the tab!
1 2 3 4 5
comments
print report bad tab
guest
You may want to rate the tab now too:
select rating
Wanna post a correction for this tab? Suggest correction