Oops, an error
Loading. Please wait.

Famous Friends And Fashion Drunks Tab

version 1
version 1

Whole song

Interactive

2,605 views 6 this week
no commentswrite comment
1 2 3 4 5
accurate
x 4
add to favorites
launch autoscroll
font size
0
reset
how to read this tab
guitar tuner
Autoscroll
slow
fast
+/-
esc
set tempo
stop
Help us to improve Ultimate-Guitar.com Take our survey!
×
Artist: A Wilhelm Scream
Song: Famous Friends and Fashion Drunks
01/15/2005
Contact: thestart_has_you@peoplepc.com

You shouldn't need a tab to figure this song out......
All the parts with Guitar #1 and Guitar #2 are played at the same time,
the rest is just in chronological order.

Tuning = DADGBe
>>>>>>>>>>>>>>>>>>>>>>>>>>>>>>>>>>>>>>>>>>>>>>>>>>>>>>>>>>>>>>

Intro
e---------------------------------------------|
B---------------------------------------------|
G---------------------------------------------|
D-----8-----0-----1---------8-----0-----1-----|
A-----8-----0-----1---------8-----0-----1-----|
D-----8-----0-----1---------8-----0-----1-----|

>>>>>>>>>>>>>>>>>>>>>>>>>>>>>>>>>>>>>>>>>>>>>>>>>>>>>>>>>>>>>>

Guitar #1
e-----------------------------------------------------------------------|
B-----------------------------------------------------------------------|
G-----------------------------------------------------------------------|
D---888888---000000---111111-111111---888888---000000---111111-111111---|
A---888888---000000---111111-111111---888888---000000---111111-111111---|
D---888888---000000---111111-111111---888888---000000---111111-111111---|


Guitar #2  -  Play riff twice
e---------------------------------------------------------------|
B---------------------------------------------------------------|
G-----101010101010101010101010101010101010---7-7-7---12-12-12---|
D-----x-x-x-x-x-x-x-x-x-x-x-x-x-x-x-x-x-x----x-x-x----x--x--x---|
A-----8-8-8-8-8-8-8-8-8-8-8-8-8-8-8-8-8-8----5-5-5---10-10-10---|
D---------------------------------------------------------------|

>>>>>>>>>>>>>>>>>>>>>>>>>>>>>>>>>>>>>>>>>>>>>>>>>>>>>>>>>>>>>>

Palm mute in parenthesis
e--------------------------------------------------------------------|
B--------------------------------------------------------------------|
G--------------------------------------------------------------------|
D---888888--000000--(111111111111)--888888--000000--(111111111111)---|
A---888888--000000--(111111111111)--888888--000000--(111111111111)---|
D---888888--000000--(111111111111)--888888--000000--(111111111111)---|


e--------------------------------------------------------------------------|
B--------------------------------------------------------------------------|
G--------------------------------------------------------------------------|
D-555555555555555555111111111111111111555555555555555555111111111111111111-|
A-555555555555555555111111111111111111555555555555555555111111111111111111-|
D-555555555555555555111111111111111111555555555555555555111111111111111111-|

>>>>>>>>>>>>>>>>>>>>>>>>>>>>>>>>>>>>>>>>>>>>>>>>>>>>>>>>>>>>>>

Guitar #1
e--------------------------------------------------------------------|
B--------------------------------------------------------------------|
G--------------------------------------------------------------------|
D---888888--000000---111111-111111---888888--000000---111111-111111--|
A---888888--000000---111111-111111---888888--000000---111111-111111--|
D---888888--000000---111111-111111---888888--000000---111111-111111--|

Guitar #2
e---------------------------------------------------------------|
B---------------------------------------------------------------|
G-----101010101010101010101010101010101010---7-7-7---12-12-12---|
D-----x-x-x-x-x-x-x-x-x-x-x-x-x-x-x-x-x-x----x-x-x----x--x--x---|
A-----8-8-8-8-8-8-8-8-8-8-8-8-8-8-8-8-8-8----5-5-5---10-10-10---|
D---------------------------------------------------------------|


e------------------------------------------------------------|
B------------------------------------------------------------|
G---151515151515---141414141414---1212---1414---1212---10----|
D---xxxxxxxxxxxx---xxxxxxxxxxxx---xxxx---xxxx---xxxx---x-----|
A---131313131313---121212121212---1010---1212---1010---8-----|
D------------------------------------------------------------|

>>>>>>>>>>>>>>>>>>>>>>>>>>>>>>>>>>>>>>>>>>>>>>>>>>>>>>>>>>>>>>

There is a pause until the chorus starts, then this....
e--------------------------------------------------------------------------|
B--------------------------------------------------------------------------|
G--------------------------------------------------------------------------|
D-555555555555555555111111111111111111555555555555555555111111111111111111-
A-555555555555555555111111111111111111555555555555555555111111111111111111-
D-555555555555555555111111111111111111555555555555555555111111111111111111-


e--------------------------------------------------------------|
B--------------------------------------------------------------|
G-----555555555555---------------------------------------------|
D-----555555555555---555555555555---666666666666666666666666---|
A-----333333333333---555555555555---666666666666666666666666---|
D--------------------555555555555---666666666666666666666666---|

e-----------------------------------------------------------------------|
B-----------------------------------------------------------------------|
G-----555555---------------------------555555---------------------------|
D-----555555---555555---666666666666---555555---555555---666666666666---|
A-----333333---555555---666666666666---333333---555555---666666666666---|
D--------------555555---666666666666------------555555---666666666666---|


e------------------------------------play each of these-|
B---------------------------------------chords 16x------|
G-(5)-----------------------------5---------------------|
D-(5)x32-(8)----(6)----(3)--------5------8------6-------|
A-(3)----(8)x32-(6)x32-(3)x32-----3------8------6-------|
D--------(8)----(6)----(3)---------------8------6-------|

e----------------------|
B----------------------|  >>>>>>>>>>>>>>>>>>>>>>>>>>>>>>>>>>>>>>>>>>>>>>>>>>>>>>>>>>>>>

Next is the only somewhat difficult part to figure out.
e---------------------------------------------------------------------|
B--------------------------------------9--8---------------------------|
G-----------8h10p8----------8h10p8----------10--8--------------8--8---|
D---8---8h10------10p8--8h10------10p8------------10--8---8h10--------|
A---------------------------------------------------------------------|
D---------------------------------------------------------------------|

>>>>>>>>>>>>>>>>>>>>>>>>>>>>>>>>>>>>>>>>>>>>>>>>>>>>>>>>>>>>>>

Repeat these two lines four times.
Guitar #1
e----------------------------------------------------|
B---9p8---------9p8---------9p8--------9p8-----------|
G------10p8--------10p8--------10p8-------10p8-------|
D----------10p8--------10p8--------10p8-------10p8---|
A----------------------------------------------------|
D----------------------------------------------------|


e-------------------------------------------------------------------|
B--9p8---------9p8---------9p8---------9p8---------9p8--------------|
G-----10p8--------10p8--------10p8--------10p8--------10p8----------|
D---------10p8--------10p8--------10p8--------10p8--------10p8h10---|
A-------------------------------------------------------------------|
D-------------------------------------------------------------------|

Guitar #2
Also repeats four times.
e-----------------------------------------------------------------------|
B-----------------------------------------------------------------------|
G-5555555555555555------------------------------------------------------|
D-5555555555555555-8888888888888888-6666666666666666-3333333333333333---|
A-3333333333333333-8888888888888888-6666666666666666-3333333333333333---|
D------------------8888888888888888-6666666666666666-3333333333333333---|


The end is something like this
e---------------------|
B---------------------|
G---------------------|
D---10--(10-10)--10---|
A---10--(10-10)--10---|
D---10--(10-10)--10---|

>>>>>>>>>>>>>>>>>>>>>>>>>>>>>>>>>>>>>>>>>>>>>>>>>>>>>>>>>>>>>>
Suggest correction
What's this?
You can suggest a correction to this tab. Community and Mods will review your correction and vote to approve or reject it.
comments
print report bad tab
guest
You may want to rate the tab now too:
select rating
Please do not post tabs as comments. Select "correction" instead!