Oops, an error
Loading. Please wait.

Killing It Tab

version 1
version 1

Whole song

Interactive

3,840 views 3 this week
1 commentread comment
1 2 3 4 5
please rate
add to favorites
launch autoscroll
font size
0
reset
how to read this tab
guitar tuner
Autoscroll
slow
fast
+/-
esc
set tempo
stop
Help us to improve Ultimate-Guitar.com Take our survey!
×
Author
Difficulty
Tuning
Jase23 353
intermediate
D A D G B E
Artist: A Wilhelm Scream
Track: Killing It
Album: Ruiner
Released: 2005
Label: Nitro Records

Key:
|---| ~ this is a section which is palm muted
  h   ~ hammer on
  ~   ~ let note ring
  p   ~ pull off
  /   ~ slide from the note before the slash to the note after it unless theres no number to slide
        to, in which case just slide down the neck from the first number..
  ^   ~ bend

0:00
Lead - Repeat 5x
e--------------------|
B----------3---------|
G----2--4-----4--2~--|
D-0------------------|
A--------------------|
D--------------------|

0:09
Rhythm
e--------------------------------------------------|
B--------------------------------------------------|
G---------------------------------9-9-9-13-14-13-9-|
D-4-4-4-2-4-4-4-2-4-4-4--7-6-0----x-x-x--x--x--x-x-|
A-4-4-4-2-4-4-4-2-4-4-4--7-6-0----7-7-7-11-12-11-7-|
D-4-4-4-2-4-4-4-2-4-4-4--7-6-0---------------------|

0:09
Lead
e--------------------------------------------------|
B--------------------------------------------------|
G-------------------------------6-6-6-9-11-9-6-----|
D-4--4-4-2-4-4--4-2-4-2---7-6-0-x-x-x-x--x-x-x-----|
A-4--4-4-2-4-4--4-2-4-2---7-6-0-4-4-4-7--9-7-4-----|
D-4--4-4-2-4-4--4-2-4-2---7-6-0--------------------|

0:13
Rhythm
e----------------------------------------------------|
B----------------------------------------------------|
G--------------------------------9-9-9--13-14-14-14--|
D-4-4-4-2-4-4-4-2-4-4-4--7-6-0---x-x-x---x--x--x--x--|
A-4-4-4-2-4-4-4-2-4-4-4--7-6-0---7-7-7--11-12-12-12--|
D-4-4-4-2-4-4-4-2-4-4-4--7-6-0-----------------------|

0:13
Lead
e---------------------------------------------------|
B---------------------------------------------------|
G--------------------------------6-6-6-9-11-11-11---|
D-4--4-4-2-4-4--4-2-4-2---7-6-0--x-x-x-x--x--x--x---|
A-4--4-4-2-4-4--4-2-4-2---7-6-0--4-4-4-7--9--9--9---|
D-4--4-4-2-4-4--4-2-4-2---7-6-0---------------------|

0:18
e-----------------------------------|
B-----------------------------------|
G------------------6666--6-6--------|
D-4--6--7--0-0-----6666--6-6--------|
A-4--6--7--0-0-----4444--4-4--------|
D-4--6--7--0-0----------------------|
 |----------------------------------|


0:20
e-----------------------------------------------------------|
B----------2-2-0-2------------2-2-0-2---------2-2-0-2-------|
G-6------------------2----------------2---------------------|
D-6-4--4-4-----------2-4--4-4---------2-4--4-4--------------|
A-4-4--4-4-----------0-4--4-4---------0-4--4-4--------------|
D---4--4-4-------------4--4-4-----------4--4-4--------------|


0:26
Rhythm
e------------------------------------------------------------------------|
B------------------------------------------------------------------------|
G-------4--6--7-7-7--7-7-7--7-7-7--7-7-7-------14-14-14-14-13-13-13-13-9-|
D-2--0--4--6--7-7-7--7-7-7--7-7-7--7-7-7--4~----x--x--x--x--x--x--x--x-x-|
A-2--0--2--4--5-5-5--5-5-5--5-5-5--5-5-5--4~---12-12-12-12-12-12-12-12-7-|
D-2--0------------------------------------4~-----------------------------|

0:26
Lead
e--------------------------------------------------------------------------|
B--------------------------------------------------------------------------|
G-------4--6--7-7-7--7-7-7--7-7-7--7-7-7-----11-11-11-11--9-9-9-9-6--------|
D-2--0--4--6--7-7-7--7-7-7--7-7-7--7-7-7--4~--x--x--x--x--x-x-x-x-x--------|
A-2--0--2--4--5-5-5--5-5-5--5-5-5--5-5-5--4~--9--9--9--9--7-7-7-7-4--------|
D-2--0------------------------------------4~-------------------------------|

0:33
e----------------------------------------------|
B----------------------------------------------|
G-7-7-7-7-7-7-7-7------6--6-6-6-------4--4-4-4-|
D-7-7-7-7-7-7-7-7--4-x-6--6-6-6---2-x-4--4-4-4-|
A-5-5-5-5-5-5-5-5--4-x-4--4-4-4---2-x-2--2-2-2-|
D------------------4-x------------2-x----------|

0:37
Lead
e---------------------|
B-----------7-5-3-2~--|
G---------------------|
D-0---0---0~----------|
A-0---0---0~----------|
D-0---0---0~----------|

0:37
Rhythm
e----------------------|
B----------------------|
G----------------------|
D-0---0---0~--0--0--0~-|
A-0---0---0~--0--0--0~-|
D-0---0---0~--0--0--0~-|


0:42
Lead
e--------------------------------------------------|
B--------------------------------------------------|
G--------------------------------6-6-6-9-11-9-6----|
D-4-4-4-2-4-4-4-2-4-4-4--7-6-0---x-x-x-x-x--x-x----|
A-4-4-4-2-4-4-4-2-4-4-4--7-6-0---4-4-4-7-9--7-4----|
D-4-4-4-2-4-4-4-2-4-4-4--7-6-0---------------------|

0:42
Rhythm
e-------------------------------------------------|
B-------------------------------------------------|
G--------------------------------9-9-9-13-14-11-9-|
D-4-4-4-2-4-4-4-2-4-4-4--7-6-0---x-x-x--x--x--x-x-|
A-4-4-4-2-4-4-4-2-4-4-4--7-6-0---7-7-7-11-12-12-7-|
D-4-4-4-2-4-4-4-2-4-4-4--7-6-0--------------------|

0:46
Lead
e---------------------------------------------------|
B---------------------------------------------------|
G---------------------------------6-6-6-9-11-11-11--|
D-4-4-4-2-4-4-4-2-4-4-4--7-6-0----x-x-x-x--x--x--x--|
A-4-4-4-2-4-4-4-2-4-4-4--7-6-0----4-4-4-7--9--9--9--|
D-4-4-4-2-4-4-4-2-4-4-4--7-6-0----------------------|

0:46
Rhythm
e------------------------------------------------------|
B------------------------------------------------------|
G----------------------------------9-9-9--13-14-14-14--|
D-4-4-4-2-4-4-4-2-4-4-4--7-6-0-----x-x-x---x--x--x--x--|
A-4-4-4-2-4-4-4-2-4-4-4--7-6-0-----7-7-7--11-12-12-12--|
D-4-4-4-2-4-4-4-2-4-4-4--7-6-0-------------------------|


0:51 this section 2x
e----------------------------------|--------------------------------------|
B----------------------------------|--------------------------------------|
G----------------------------------|--------------------------------------|
D-0--0-0--0-0-0--4--4-4--4-4-4-----|-0--0-0--0-0-0--4-4-4-4-2-2-2-2--0~---|
A-0--0-0--0-0-0--4--4-4--4-4-4-----|-0--0-0--0-0-0--4-4-4-4-2-2-2-2--0~---|
D-0--0-0--0-0-0--4--4-4--4-4-4-----|-0--0-0--0-0-0--4-4-4-4-2-2-2-2--0~---|

0:58
e----------------|
B----------------|
G-6666-6-6-------|
D-6666-6-6-------|
A-4444-4-4-------|
D----------------|
  |--|

0:59
e-----------------------------------------------------------|
B----------2-2-0-2------------2-2-0-2---------2-2-0-2-------|
G-6------------------2----------------2---------------------|
D-6-4--4-4-----------2-4--4-4---------2-4--4-4--------------|
A-4-4--4-4-----------0-4--4-4---------0-4--4-4--------------|
D---4--4-4-------------4--4-4-----------4--4-4--------------|

1:06
Rhythm
e------------------------------------------------------------------------|
B------------------------------------------------------------------------|
G-------4--6--7-7-7--7-7-7--7-7-7--7-7-7-------14-14-14-14-13-13-13-13-9-|
D-2--0--4--6--7-7-7--7-7-7--7-7-7--7-7-7--4~----x--x--x--x--x--x--x--x-x-|
A-2--0--2--4--5-5-5--5-5-5--5-5-5--5-5-5--4~---12-12-12-12-12-12-12-12-7-|
D-2--0------------------------------------4~-----------------------------|

1:06
Lead
e--------------------------------------------------------------------------|
B--------------------------------------------------------------------------|
G-------4--6--7-7-7--7-7-7--7-7-7--7-7-7-----11-11-11-11--9-9-9-9-6--------|
D-2--0--4--6--7-7-7--7-7-7--7-7-7--7-7-7--4~--x--x--x--x--x-x-x-x-x--------|
A-2--0--2--4--5-5-5--5-5-5--5-5-5--5-5-5--4~--9--9--9--9--7-7-7-7-4--------|
D-2--0------------------------------------4~-------------------------------|

1:12
e------------------------------------|
B------------------------------------|
G-7-7-7-7-7-7-7-7----x-x-6----x-x-4--|
D-7-7-7-7-7-7-7-7--4-x-x-6--2-x-x-4--|
A-5-5-5-5-5-5-5-5--4-x-x-4--2-x-x-2--|
D------------------4--------2--------|

1:17
Lead
e--------------------------------|
B-------------7h5-7h5~--3-2-0----|
G-----------------------------2--|
D-0---0---0~---------------------|
A-0---0---0~---------------------|
D-0---0---0~---------------------|

1:17
Rhythm
e----------------------|
B----------------------|
G----------------------|
D-0---0---0~--0--0--0~-|
A-0---0---0~--0--0--0~-|
D-0---0---0~--0--0--0~-|

1:21
Lead
e--------------------------------------------------|
B--------------------------------------------------|
G--------------------------------6-6-6-9-11-9-6----|
D-4-4-4-2-4-4-4-2-4-4-4--7-6-0---x-x-x-x-x--x-x----|
A-4-4-4-2-4-4-4-2-4-4-4--7-6-0---4-4-4-7-9--7-4----|
D-4-4-4-2-4-4-4-2-4-4-4--7-6-0---------------------|

1:21
Rhythm
e-------------------------------------------------|
B-------------------------------------------------|
G--------------------------------9-9-9-13-14-11-9-|
D-4-4-4-2-4-4-4-2-4-4-4--7-6-0---x-x-x--x--x--x-x-|
A-4-4-4-2-4-4-4-2-4-4-4--7-6-0---7-7-7-11-12-12-7-|
D-4-4-4-2-4-4-4-2-4-4-4--7-6-0--------------------|

1:25
Lead
e---------------------------------------------------|
B---------------------------------------------------|
G---------------------------------6-6-6-9-11-11-11--|
D-4-4-4-2-4-4-4-2-4-4-4--7-6-0----x-x-x-x--x--x--x--|
A-4-4-4-2-4-4-4-2-4-4-4--7-6-0----4-4-4-7--9--9--9--|
D-4-4-4-2-4-4-4-2-4-4-4--7-6-0----------------------|

1:25
Rhythm
e------------------------------------------------------|
B------------------------------------------------------|
G----------------------------------9-9-9--13-14-14-14--|
D-4-4-4-2-4-4-4-2-4-4-4--7-6-0-----x-x-x---x--x--x--x--|
A-4-4-4-2-4-4-4-2-4-4-4--7-6-0-----7-7-7--11-12-12-12--|
D-4-4-4-2-4-4-4-2-4-4-4--7-6-0-------------------------|

1:29 This section 2x
e----------------------------------|--------------------------------------|
B----------------------------------|--------------------------------------|
G----------------------------------|--------------------------------------|
D-0--0-0--0-0-0--4--4-4--4-4-4-----|-0--0-0--0-0-0--4-4-4-4-2-2-2-2--0~---|
A-0--0-0--0-0-0--4--4-4--4-4-4-----|-0--0-0--0-0-0--4-4-4-4-2-2-2-2--0~---|
D-0--0-0--0-0-0--4--4-4--4-4-4-----|-0--0-0--0-0-0--4-4-4-4-2-2-2-2--0~---|

1:37
Rhythm
e--------------------------------------------------------------------|
B-12p11p9--9------12p11p9--9-----12p11p9--9-----12p11p9--9-----------|
G------------11--------------9---------------------------------------|
D-------------------------------------------12--------------11-11~---|
A--------------------------------------------------------------------|
D--------------------------------------------------------------------|

1:42
Lead           Repeat 'til end
e-------------|--------------|
B-----2-------|-----2--------|
G-2h4---4-2-2~|-4-2---4-2-2~-|
D-------------|--------------|
A-------------|--------------|
D-------------|--------------|

1:46
Rhythm
e---------------------------------------------------------------------------------------------------------|
B---------------------------------------------------------------------------------------------------------|
G---------------------------------------------------------------------------------------------------------|
D-0-0-0-0-0-0-0-0-0-2-2-2-2-2-2-2-2-2-2-0-0-0-0-0-0-0-0-0-0-0-0-4-4-4-4-4-4-4-4-4-2-2-2-2-2-2-2-2-2--0~~--|
A-0-0-0-0-0-0-0-0-0-2-2-2-2-2-2-2-2-2-2-0-0-0-0-0-0-0-0-0-0-0-0-4-4-4-4-4-4-4-4-4-2-2-2-2-2-2-2-2-2--0~~--|
D-0-0-0-0-0-0-0-0-0-2-2-2-2-2-2-2-2-2-2-0-0-0-0-0-0-0-0-0-0-0-0-4-4-4-4-4-4-4-4-4-2-2-2-2-2-2-2-2-2--0~~--|
Suggest correction
What's this?
You can suggest a correction to this tab. Community and Mods will review your correction and vote to approve or reject it.
comments
We did not receive enough feedback on this tab! Please rate:
print report bad tab
1 2 3 4 5
1 comment total.
+1 reply
ntek 13 wrote on July 3 2010, 01:45 am

i think the beginning is more like:


--------------------------------
-------3---------3--------------
-----4---4-------2--------------
---4-------------4--------------
-2----------2----2--------------
--------------------------------

guest
You may want to rate the tab now too:
select rating
Please do not post tabs as comments. Select "correction" instead!