Oops, an error
Loading. Please wait.

Mercy Day For Mr Vengeance Tab

922 views 1 this week
no commentswrite comment
1 2 3 4 5
please rate
add to favorites
launch autoscroll
font size
0
reset
how to read this tab
guitar tuner
Autoscroll
slow
fast
+/-
esc
set tempo
stop
Help us to improve Ultimate-Guitar.com Take our survey!
×
Author
Difficulty
Tuning
intermediate
D A D G B E
Artist: A Wilhelm Scream
Track: Mercy Day For Mr. Vengeance
Album: Ruiner
Released: 2005
Label: Nitro Records

Key:
|---| ~ this is a section which is palm muted
  h   ~ hammer on
  ~   ~ let note ring
  p   ~ pull off
  /   ~ slide from the note before the slash to the note after it unless theres no number to slide
        to, in which case just slide down the neck from the first number
  ^   ~ bend

0:00
Lead - 4x
e-----------------------------------|
B-5-5-5--5-5-5--5-5-5--5-5-5---5555-|
G-4-4-4--4-4-4--4-4-4--4-4-4---4444-|
D-2-2-2--2-2-2--2-2-2--2-2-2---2222-|
A-----------------------------------|
D-----------------------------------|

0:00
Rhythm - 4x
e------------------------------|
B------------------------------|
G-6-6-6------------------------|
D-6-6-6-0-0-0-4-4-4-0-0-0-5555-|
A-4-4-4-0-0-0-4-4-4-0-0-0-5555-|
D-------0-0-0-4-4-4-0-0-0-5555-|

0:10
Lead - Repeat until 0:28
e------------------|
B------------------|
G-7-7-7-7-7-7-7-7--|
D-7-7-7-7-7-7-7-7--|
A-5-5-5-5-4-4-4-4--|
D------------------|
 |-----------------|

0:10
Rhythm -
Repeat each note 24x
Repeat section until 0:28
e---|------|
B---|------|
G---|------|
D-0-|--5---|
A-0-|--5---|
D-0-|--5---|
 |---------|

0:28 - Repeat 2x
e----------------------------------------------|
B----------------------------------------------|
G----------------------------------------------|
D-2--2-2-2--2-2-4--4-4-4--4-4-5--5-5-5--5-5--5-|
A-2--2-2-2--2-2-4--4-4-4--4-4-5--5-5-5--5-5--5-|
D-2--2-2-2--2-2-4--4-4-4--4-4-5--5-5-5--5-5--5-|

0:38
Lead - Repeat 8x
e---------------------------------|
B---------------------------------|
G-9-7---7----7-9---12-11-9--------|
D-----9----9----------------12-9--|
A---------------------------------|
D---------------------------------|

0:38
Rhythm
 1x     8x    1x   8x     1x   4x     1x   4x     1x    12x
e---|-------|---|-------|---|-------|---|-------|---|-------|
B---|-------|---|-------|---|-------|---|-------|---|-------|
G-4-|-4-4-4-|---|-------|-4-|-4-4-4-|-2-|-2-2-2-|---|-------|
D-4-|-4-4-4-|-5-|-5-5-5-|-4-|-4-4-4-|-2-|-2-2-2-|-5-|-5-5-5-|
A-2-|-2-2-2-|-5-|-5-5-5-|-2-|-2-2-2-|-0-|-0-0-0-|-5-|-5-5-5-|
D---|-------|-5-|-5-5-5-|---|-------|---|-------|-5-|-5-5-5-|

0:57
Lead - 4x
e-----------------------------------|
B-5-5-5--5-5-5--5-5-5--5-5-5---5555-|
G-4-4-4--4-4-4--4-4-4--4-4-4---4444-|
D-2-2-2--2-2-2--2-2-2--2-2-2---2222-|
A-----------------------------------|
D-----------------------------------|

0:57
Rhythm - 4x
e------------------------------|
B------------------------------|
G-6-6-6------------------------|
D-6-6-6-0-0-0-4-4-4-0-0-0-5555-|
A-4-4-4-0-0-0-4-4-4-0-0-0-5555-|
D-------0-0-0-4-4-4-0-0-0-5555-|

1:07
Lead - Repeat until 1:26
e-----------------|
B-----------------|
G-7-7-7-7-7-7-7-7-|
D-7-7-7-7-7-7-7-7-|
A-5-5-5-5-4-4-4-4-|
D-----------------|

1:07
Rhythm -
Repeat each note 24x
Repeat section until 1:25
e---|------|
B---|------|
G---|------|
D-0-|--5---|
A-0-|--5---|
D-0-|--5---|
 |---------|

1:27 - Repeat 2x
e----------------------------------------------|
B----------------------------------------------|
G----------------------------------------------|
D-2--2-2-2--2-2-4--4-4-4--4-4-5--5-5-5--5-5--5-|
A-2--2-2-2--2-2-4--4-4-4--4-4-5--5-5-5--5-5--5-|
D-2--2-2-2--2-2-4--4-4-4--4-4-5--5-5-5--5-5--5-|

1:36
Lead - Repeat 8x
e---------------------------------|
B---------------------------------|
G-9-7---7----7-9---12-11-9--------|
D-----9----9----------------12-9--|
A---------------------------------|
D---------------------------------|

1:36
Rhythm
 1x     8x    1x   8x     1x   4x     1x   4x     1x    12x
e---|-------|---|-------|---|-------|---|-------|---|-------|
B---|-------|---|-------|---|-------|---|-------|---|-------|
G-4-|-4-4-4-|---|-------|-4-|-4-4-4-|-2-|-2-2-2-|---|-------|
D-4-|-4-4-4-|-5-|-5-5-5-|-4-|-4-4-4-|-2-|-2-2-2-|-5-|-5-5-5-|
A-2-|-2-2-2-|-5-|-5-5-5-|-2-|-2-2-2-|-0-|-0-0-0-|-5-|-5-5-5-|
D---|-------|-5-|-5-5-5-|---|-------|---|-------|-5-|-5-5-5-|

1:55
Lead - Repeat 2x (this isn't 100% for picking frequency, but those it's only those notes..)
e---------------------------|
B---------------------------|
G-6-6-6-----6-6-6-----6-6---|
D-6-6-6-0-0-6-6-6-0-0-6-6-0-|
A-4-4-4-0-0-4-4-4-0-0-4-4-0-|
D-------0-0-------0-0-----0-|
                         |-|
^NOTE^: Rhythm plays the last 4 or so notes of the last repeat aswell

2:00
Lead - Repeat 2x then add extra section
e---------------------------------------------------|---------|
B---------------------------------------------------|---------|
G----------------------------------44-4-4-4-4-4-4-4-|-11^^^11-|
D-2-2-2-2-2-2-2-55-5-5-5-5-5-5-5-5-44-4-4-4-4-4-4-4-|---------|
A-2-2-2-2-2-2-2-55-5-5-5-5-5-5-5-5-22-2-2-2-2-2-2-2-|---------|
D-2-2-2-2-2-2-2-55-5-5-5-5-5-5-5-5------------------|---------|

2:09
Lead - Repeat 2x
e--------------------------------------------------|
B-------------------------4-4-4-4-4-4-4-4-4-4-4-4--|
G-------------------------4-4-4-4-4-4-4-4-4-4-4-4--|
D-2-2-2-2-2-2-5-5-5-5-5-5-4-4-4-4-4-4-4-4-4-4-4-4--|
A-2-2-2-2-2-2-5-5-5-5-5-5-2-2-2-2-2-2-2-2-2-2-2-2--|
D-2-2-2-2-2-2-5-5-5-5-5-5--------------------------|
 |---| |---| |---| |---| |---| |---| |---| |-------|

2:19 - Repeat 4x| then repeat this part 6x
e---------------|--------|
B---------------|--------|
G-6-------------|--------|
D-6-0-4-0-5-5-5-|-5555-5-|
A-4-0-4-0-5-5-5-|-5555-5-|
D---0-4-0-5-5-5-|-5555-5-|

2:31
Lead - Repeat 8x
e----------------------------------|
B----------------------------------|
G-4-4-6-6-7-7-6-6-9-9-7-7-11-11-9--|
D-x-x-x-x-x-x-x-x-x-x-x-x--x--x-x--|
A-2-2-4-4-5-5-4-4-7-7-5-5--9--9-7--|
D----------------------------------|

2:31
Rhythm (quicker pace to chorus)
 1x     8x    1x   8x     1x   4x     1x   4x     1x    12x
e---|-------|---|-------|---|-------|---|-------|---|-------|
B---|-------|---|-------|---|-------|---|-------|---|-------|
G-4-|-4-4-4-|---|-------|-4-|-4-4-4-|-2-|-2-2-2-|---|-------|
D-4-|-4-4-4-|-5-|-5-5-5-|-4-|-4-4-4-|-2-|-2-2-2-|-5-|-5-5-5-|
A-2-|-2-2-2-|-5-|-5-5-5-|-2-|-2-2-2-|-0-|-0-0-0-|-5-|-5-5-5-|
D---|-------|-5-|-5-5-5-|---|-------|---|-------|-5-|-5-5-5-|

2:51
e---------------|
B---------------|
G-6-------------|
D-6-0-4-0--5555-|
A-4-0-4-0--5555-|
D---0-4-0--5555-|
          |----|
Suggest correction
Give kudos to tab author, rate the tab!
1 2 3 4 5
comments
print report bad tab
guest
You may want to rate the tab now too:
select rating
Please do not post tabs as comments. Select "correction" instead!