Oops, an error
Loading. Please wait.

Mute Print Tab

version 1
version 1

Whole song

1,501 views 1 this week
1 commentread comment
1 2 3 4 5
please rate
add to favorites
launch autoscroll
font size
0
reset
how to read this tab
guitar tuner
Tab Pro tools
  • play this tab
  • loop segment
  • change instrument
  • show fretboard
  • metronome
×
Best way to learn
"Mute Print"
Autoscroll
slow
fast
+/-
esc
set tempo
stop
Artist: A Wilhelm Scream
Song: Mute Print
01/14/2005
Contact: thestart_has_you@peoplepc.com

Tuning = DADGBe
>>>>>>>>>>>>>>>>>>>>>>>>>>>>>>>>>>>>>>>>>>>>>>>>>>>>>>>>>>>>>>

e-----------------------------------------------------------|
B-----------------------------------------------------------|
G-----------------------------------------------------------|
D-----77777777777777777777777777777777---3333333333333333---|
A-----77777777777777777777777777777777---3333333333333333---|
D-----77777777777777777777777777777777---3333333333333333---|

e-----------------------------------------------------------------|
B-----------------------------------------------------------------|
G-----7777777777777777-------------------555----------------------|
D-----7777777777777777---3333333333333---555---7777777777777777---|
A-----5555555555555555---3333333333333---333---7777777777777777---|
D------------------------3333333333333---------7777777777777777---|

e-----------------------|
B-----------------------|
G-----------------------|
D-----3333333333333-----|
A-----3333333333333-----|
D-----3333333333333-----|

>>>>>>>>>>>>>>>>>>>>>>>>>>>>>>>>>>>>>>>>>>>>>>>>>>>>>>>>>>>>>>

This next riff might be a little off, but it's a start...
^ means to bend 1/2 step
e---------------------------12--10p8----------------------------------|
B-------10-----8-----8---8^-----------10--8---8-10------------5h6p5---|
G---9-9----9-9---9-9---7--------------------9-------7---5h7p5---------|
D---------------------------------------------------------------------|
A---------------------------------------------------------------------|
D---------------------------------------------------------------------|

e---------------------------------------------------|
B---------5h6p5-------5h6p5-------5h6p5-------5^^---|
G---5h7p5-------5h7p5-------5h7p5--------7^^--------|
D---------------------------------------------------|
A---------------------------------------------------|
D---------------------------------------------------|

>>>>>>>>>>>>>>>>>>>>>>>>>>>>>>>>>>>>>>>>>>>>>>>>>>>>>>>>>>>>>>

(palm mute in parenthesis)
e-----------------------------------------------------------------------|
B-----------------------------------------------------------------------|
G------------(10)--(10)--------(10)--(10)--10101010101010101010101010---|
D---(88888888)--(88)--(88888888)--(88)-----10101010101010101010101010---|
A------------------------------------------8-8-8-8-8-8-8-8-8-8-8-8-8----|
D-----------------------------------------------------------------------|

e-----------------------------------------------------------------------|
B-----------------------------------------------------------------------|
G--7777777777777777---------------555-----------------------------------|
D--7777777777777777-3333333333333-555-*7777777777777777-3333333333333---|
A--5555555555555555-3333333333333-333-*7777777777777777-3333333333333---|
D-------------------3333333333333-----*7777777777777777-3333333333333---|

e---------------------------------------------------------------|
B---------------------------------------------------------------|
G---------------7-77777-----------7-77777-----------7-77777-----|
D--0---3-33333--7-77777--3-33333--7-77777--3-33333--7-77777-----|
A--0---3-33333--5-55555--3-33333--5-55555--3-33333--5-55555-----|
D--0---3-33333-----------3-33333-----------3-33333--------------|

e------------------------------------------------------------------------|
B------------------------------------------------------------------------|
G----------------------------------------------555-----------------------|
D--5555555555555555--3-3-3--3-(333333333333)---555---*7777777777777777---|
A--5555555555555555--3-3-3--3-(333333333333)---333---*7777777777777777---|
D--5555555555555555--3-3-3--3-(333333333333)---------*7777777777777777---|

e------------------|
B------------------|
G------------------|              This is the end of the song.
D-----33333333-----|
A-----33333333-----|
D-----33333333-----|

>>>>>>>>>>>>>>>>>>>>>>>>>>>>>>>>>>>>>>>>>>>>>>>>>>>>>>>>>>>>>>

* It sounds like the second guitar playing this,
starting where the asterisks are in the tab.
e-----------------------------------------------|
B-----------------------------------------------|
G----10-10-10-10----12-12-12-12-----7-7-7-7-----|
D----x--x--x--x------x--x--x--x-----x-x-x-x-----|
A----8--8--8--8-----10-10-10-10-----5-5-5-5-----|
D-----------------------------------------------|

>>>>>>>>>>>>>>>>>>>>>>>>>>>>>>>>>>>>>>>>>>>>>>>>>>>>>>>>>>>>>>
comments
We did not receive enough feedback on this tab! Please rate:
print report bad tab
1 2 3 4 5
1 comment total.
0 reply
amazing wrote on February 28 2006, 10:02 am

You should try to tab out more of a wilhelm scream!!! Rock on

I want to post or [tab]
guest
You may want to rate the tab now too:
select rating
Please do not post tabs as comments. Select "correction" instead!