Oops, an error
Loading. Please wait.

Rip Tab

version 2
version 2

Whole song

Interactive

1,009 views 1 this week
no commentswrite comment
1 2 3 4 5
3 more votes to show rating
add to favorites
launch autoscroll
font size
0
reset
how to read this tab
guitar tuner
Autoscroll
slow
fast
+/-
esc
set tempo
stop
Help us to improve Ultimate-Guitar.com Take our survey!
×
Difficulty
Tuning
intermediate
D A D G B E
-------------------------------------------------------------------------------
                             The Rip - A Wilhelm Scream
-------------------------------------------------------------------------------
Tabbed by:feetfirst
Email:free_to_say_no_more@hotmail.com
This is my first tab so i hope it sounds right when you play it. All the chords should 
right, just watch out for how long play you them, i'll do my best to include that.

Tuning:EBGDAD
Guitar 1 is Trevor Reilly, guitar 2 is Chris Levesque

INTRO

Guitar 1
e|-------------------------------------------------------------------|
B|-------------------------------------------------------------------|
G|-------------------------------------------------------------------|
D|0------------------------------------------------------------------|
A|0--(let-ring)------------------------------------------------------|
D|0------------------------------------------------------------------|

0:04
e|-------------------------------------------------------------------|
B|-------------------------------------------------------------------|
G|-------------------------------------------------------------------|
D|0-0-12h10p0-12h10p0-1313131313131313--0-0-12h10p0-12h10p-13--------|
A|-------------------------------------------------------------------|
D|-------------------------------------------------------------------|

e|-------------------------------------------------------------------|
B|-------------------------------------------------------------------|
G|-------------------------------------------------------------------|
D|0-0-8-0-7-0-8-0-10-8-7--0-0-8-0-7-0-8-0-10-8-7---------------------|
A|-------------------------------------------------------------------|
D|-------------------------------------------------------------------|

e|-------------------------------------------------------------------|
B|-------------------------------------------------------------------|
G|-------------------------------------------------------------------|
D|0-0-12h10p0-12h10p0-1313131313131313--0-0-12h10p0-12h10p0-13-------|
A|-------------------------------------------------------------------|
D|-------------------------------------------------------------------|

e|-------------------------------|
B|(repeat both parts)------------|
G|-------------------------------|
D|---------------------0-0-------|
A|---------------------0-0-------|
D|---------------------0-0-------|
                       x x

Guitar 2
0:00
e|--------------------------------------------------------------------|
B|--------------------------------------------------------------------|
G|--------------------------------------------------------------------|
D|0-0-8h7p0-8h7p0-1010101010101010--0-0-8h7p0-8h7p0-10-(repeat)-------|
A|--------------------------------------------------------------------|
E|--------------------------------------------------------------------|

e|--------------------------------------------------------------------|
B|--------------------------------------------------------------------|
G|--------------------------------------------------------------------|
D|0-0-12-0-10-0-12-0-13-12-10--0-0-12-0-10-0-12-0-13-12-10------------|
A|--------------------------------------------------------------------|
E|--------------------------------------------------------------------|

e|-------------------------------|
B|(repeat both parts)------------|
G|-------------------------------|
D|---------------------0-0-------|
A|---------------------0-0-------|
D|---------------------0-0-------|
                       x x

VERSE
Both Guitars
e|---------------------------------------------------------------------|
B|---------------------------------------------------------------------|
G|33333---------7777777777777777777777777777--1010---------------------|
D|33333-33-555--7777777777777777777777777777--1010-88-101010-----------|
A|11111-33-555--5555555555555555555555555555---8-8-88-101010-----------|
D|------33-555-------------------------------------88-101010-----------|
                  xxxxxxxx xxxxxxxx xxxxxxxx

CHORUS
Both Guitars
e|---------------------------------------------------------------------|
B|-----1010------------------------------------------------------------|
G|-------------------(Guitar 1)----(Guitar 2)--------------------------|
D|8888------333-555---0-------------0----5-----(both guitars repeat)---|
A|8888------333-555---0-X16---------0-X8-x-X8--------------------------|
D|8888------333-555---0-------------0----7-----------------------------|

e|---------------------------------------------------------------------|
B|---------------------------------------------------------------------|
G|---------------------------------------------------------------------|
D|33333333-55555555--7-X16-(both guitars repeat)--33-55-0--------------|
A|11111111-33333333--5----------------------------33-55-0--------------|
D|------------------------------------------------33-55-0--------------|
  xxxxxxxx xxxxxxxx  x

Repeat Verse & Chorus
BRIDGE 1
(don't play open strings at end of chorus)
Guitar 1         Guitar2
e|--------------|---------5---------------------------------------------|
B|-------10-----|-----6-----6-------------------------------------------|
G|--10------10--|---3---3------(both guitars repeat)--------------------|
D|8----8--------|-------------------------------------------------------|
A|--------------|-------------------------------------------------------|
D|--------------|-------------------------------------------------------|

Guitar 1
e|----------------------------------------------------------------------|
B|----------------------------------------------------------------------|
G|-------333------------------------------------------------------------|
D|000----333-X8-(repeat)------------------------------------------------|
A|000-X8-111------------------------------------------------------------|
D|000-------------------------------------------------------------------|

Guitar 2
e|---------------------5----------------5-------------------------------|
B|-----------------6-----6----------6-----6-----------------------------|
G|-------333-----3---3------------3---3---------------------------------|
D|000----333-X4------------000------------------------------------------|
A|000-X8-111---------------000-X4---------------------------------------|
D|000----------------------000------------------------------------------|

Guitar 1
e|----------------------------------------------------------------------|
B|----------------------------------------------------------------------|
G|------------------------------------------------222---222-------------|
D|55555-88-77--77-88-1010-888--88888-1212-1010--33xxx-33xxx--00-00------|
A|55555-55-55--77-77--7-7-777--88888--8-8--8-8--55555-55555--00-00------|
D|55555-55-55--77-77--7-7-777--88888--8-8--8-8--55555-55555--00-00------|
                                                             xx xx

e|8h10p8--6h8p6--5h6p5--3h5p3--5-3--------------------------------------|
B|---------------------------------6-5----------------------------------|
G|-------------------------------------5--------------------------------|
D|----------------------------------------------------------------------|
A|----------------------------------------------------------------------|
D|----------------------------------------------------------------------|

Guitar 2
e|----------------------5h6-5p3--------5h6-5p3--------5h6-5p3-----------|
B|------------------------------6p5-3----------6p5-3----------6p5-3-----|
G|-----2----3-----------------------------------------------------------|
D|5----2-X8-3-X8-5------------------------------------------------------|
A|5-X8-0----1----5-X8---------------------------------------------------|
D|5--------------5------------------------------------------------------|

e|------------------------------|
B|6-5-3-------------------------|
G|------5-2---------------------|
D|------------------------------|
A|------------------------------|
D|------------------------------|

Both Guitars   Guitar 1
e|--------------|--------------------------------------------------------|
B|--------------|--------------------------------------------------------|
G|333----222----|14/12-14--14-/-12-14--12/10-9--------------------10-----|
D|333-X8-222-X8-|-x/-x--x---x-/--x--x---x/-x-x-(repeat both parts)-x-----|
A|111----000----|12/10-12--12-/-10-12--10/-8-7---------------------8-----|
D|--------------|--------------------------------------------------------|
  xx     xx

Guitar 2
e|-----------------------------------------------------------------------|
B|-----------------------------------------------------------------------|
G|10/9-10--10/9-10--9/7-5------------------------------------------------|
D|-x/x--x---x/x--x--x/x-x-(repeat both parts)----------------------------|
A|-8/7--8---8/7--8--7/5-3------------------------------------------------|
D|-----------------------------------------------------------------------|

Both Guitars               Guitar 1   Guitar 2
e|------------------------|----------|---------|-------------------------|
B|------------------------|----------|---------|-------------------------|
G|7-----6-----5-----------|---10-----|---5-----|-------------------------|
D|7-X24-6-X24-5-X24-5-----|----x-X8--|---5-X8--|-(repeat at slower tempo)|
A|5-----4-----3-----5-X8--|----8-----|---5-----|-------------------------|
D|------------------5-----|----------|---------|-------------------------|

Both Guitars
e|------------------------------|
B|---------------------------3--|
G|777-5-3---333---333---333332--|
D|777-5-3---333---333---333333--|
A|555-3-1---111---111---111111--|
D|------------------------------|
                        xxxx

OUTRO
Guitar 1
e|-----------------------------------------------------------------------|
B|-----------------------------------------------------------------------|
G|-----------------------------------------------------------------------|
D|0000-----14/12-14--12/10-9----------------------10---------------------|
A|0000-X8---x/-x--x---x/-x-x-(repeat four times)---x---------------------|
D|0000-----12-10-12--10/-8-7-----------------------8---------------------|
  xxxx

Guitar 2
e|-----------------------------------------------------------------------|
B|-----------------------------------------------------------------------|
G|7777--10/9-10--9/7-5---------------------7-----------------------------|
D|7777---x/x--x--x/x-x-(repeat four times)-x-----------------------------|
A|5555---8/7--8--7/5-3---------------------5-----------------------------|
D|-----------------------------------------------------------------------|
  xxx


| /  slide up
| \  slide down
| h  hammer-on
| p  pull-off
| ~  vibrato
| +  harmonic
| x  Mute note
===============================================================================
Suggest correction
Give kudos to tab author, rate the tab!
1 2 3 4 5
comments
print report bad tab
guest
You may want to rate the tab now too:
select rating
Wanna post a correction for this tab? Suggest correction