Oops, an error
Loading. Please wait.

My Sitter tab

445 views 9 this week
no commentswrite comment
1 2 3 4 5
2 more votes to show rating
add to favorites
×
Save as Personal and add changes to this tab that will be seen only by you. Learn more ›
×
You can save this tab as Personal to edit and correct it or add notes. All changes will be seen only by you. Learn more »
launch autoscroll
font size
0
reset
how to read this tab
guitar tuner
edit
Autoscroll
slow
fast
+/-
esc
set tempo
stop
Author
Difficulty
About this tab version
Great song, but couldn't find tabs/chords for it anywhere except on utab. E is played a little differently for the verses and intro so it works. Super simple, there's only 4 chords. A strumming isn't hard just follow along with the song. Was this info helpful? Yes No
[Intro]
     E        B
e|---------------------|
B|---------------------|
G|---8--------4--------| x2
D|---9--x12---4--x12---|
A|---7--------2--------|
E|---0-----------------|


[Verse]
     E        B
e|---------------------|
B|---------------------|
G|---8--------4--------| x2
D|---9--x12---4--x12---|
A|---7--------2--------|
E|---0-----------------|


[Chorus]
    C#m      E       B
e|----------------------------|
B|----(palm mute)-------------|
G|----------------------------|
D|---6--x8---9--x8---4--x16---|
A|---4-------7-------2--------|
E|----------------------------|
    C#m      E
e|---------------|
B|---------------|
G|---6-------9---|
D|---6--x8---9---|
A|---4-------7---|
E|---------------|


[Interlude]
    B
e|-----------|
B|-----------|
G|--4--------|
D|--4--x15---|
A|--2--------|
E|-----------|
     E        B
e|---------------------|
B|---------------------|
G|---8--------4--------| x2
D|---9--x12---4--x12---|
A|---7--------2--------|
E|---0-----------------|


[Verse]
     E     B
e|---(single strum)---|
B|--------------------|
G|---8-----4----------| x2
D|---9-----4----------|
A|---7-----2----------|
E|---0----------------|
    B
e|----------|
B|----------|
G|--4-------|
D|--4--x7---|
A|--2-------|
E|----------|


[Chorus]
    C#m      E       B
e|----------------------------|
B|----------------------------|
G|---6-------9-------4--------| x3
D|---6--x8---9--x8---4--x16---|
A|---4-------7-------2--------|
E|----------------------------|
    G#m      E
e|---------------|
B|---------------|
G|-----------9---|
D|---6-------9---|
A|---6--x7---7---|
E|---4-----------|


[Interlude]
    B
e|-----------|
B|-----------|
G|--4--------|
D|--4--x16---|
A|--2--------|
E|-----------|
    G#m       B
e|---------------------|
B|---------------------|
G|------------4--------| x3
D|---6--x14---4--x14---|
A|---6--------2--------|
E|---4-----------------|
    G#m
e|------------|
B|------------|
G|------------|
D|---6--x14---|
A|---6--------|
E|---4--------|


[Chorus]
    C#m      E       B
e|----------------------------|
B|----------------------------|
G|---6-------9-------4--------| x2
D|---6--x8---9--x8---4--x16---|
A|---4-------7-------2--------|
E|----------------------------|

(On the 2nd time end on a single strum for B


Mom keep singing 
About the American dream
Collective image 
Paints over pictures of me

Show me passion
Show me the reasons that I ought to be scared
With you as my sitter
I'm not going anywhere

I've seen a lot of comes and goes 
I've got the things you want to know
Tucked away on my bookshelf 
Waiting for fate to arrive

Give me traction 
Give me the reasons I should want to be saved
With you as my sitter
I'm always gonna be underpaid
Show me passion
Some reaction
Show me the reasons that I ought to be scared
With you as my sitter 
I'm not going anywhere

Show me passion
Some reaction
Show me the reasons that I ought to be scared
With you as my sitter 
I'm not going anywhere



************************************

| x  Dead note

************************************

            
            
Suggest correction
Creating personal tab
Creating personal tab
You can edit any tab online and save it as your Personal.

You can edit, replace or remove any tab part or add personal notes – all changes will be seen only by you.

Personal tabs can be accessed anytime from any device, even offline.
Learn more »
Give kudos to tab author, rate the tab!
1 2 3 4 5
comments
print report bad tab
guest
You may want to rate the tab now too:
select rating
Wanna post a correction for this tab? Suggest correction