Oops, an error
Loading. Please wait.

Der Schrei Tab

16 views 1 this week
no commentswrite comment
1 2 3 4 5
3 more votes to show rating
add to favorites
launch autoscroll
font size
0
reset
how to read this tab
guitar tuner
Autoscroll
slow
fast
+/-
esc
set tempo
stop
Help us to improve Ultimate-Guitar.com Take our survey!
×
Author
Difficulty
Tuning
intermediate
D G C F A D
* Use heavy distortion and high treble

* Song was tabbed for D tuning but is likely played a half step up.

* Canadian Black Metal Band, According to MA the female vocalist was a
  member of Gwar for a brief period of time.

--------------------------------------------------------------------------------------------------------

Song Arrangement

[Intro]

[Riff1]

[Riff2]

[Riff3]

[Riff4] - Repeat 2 times

[Outro]


--------------------------------------------------------------------------------------------------------

[Intro]

* Tremolo Each cord for each 16th note. Spacing is for readability

d|-----------------------------------------| X6
A|-----------------------------------------|
F|---------------------3333-3333-3333-3333-|
C|-3333-3333-3333-3333-3333-3333-3333-3333-|
G|-3333-3333-3333-3333-1111-1111-1111-1111-|
D|-1111-1111-1111-1111---------------------|


--------------------------------------------------------------------------------------------------------

[Riff1]

* Tremolo Each cord for each 16th note. Spacing is for readability

d|------------------------------------------| x2
A|-6666-6666-4444------666666--44-4444-2222-|
F|-5555-5555-3333-3333-555555--55-3333-3333-|
C|-3333-3333-1111-1111-333333--33-1111-1111-|
G|----------------4444----------------------|
D|------------------------------------------|

--------------------------------------------------------------------------------------------------------


[Riff2]


* Let the first two chords ring
* Tremolo the last 4 chords for an 16th note 
      
d|--------1(1)----------------| x4
A|--------1(1)----------------|
F|--------1(1)------3333-1111-|
C|-3(3)---3(3)------3333-1111-|
G|-3(3)---3(3)------1111-1111-|
D|-1(1)---1(1)----------------|
          D

D - Down stroke

--------------------------------------------------------------------------------------------------------

[Riff3]

* Tremolo Each cord for each 16th note. Spacing is for readability

d|-------------------------------------| x4
A|-------------------------------------|
F|-00000000-33333333-------------------|
C|-11111111-44444444-33333333-56665533-|
G|-33333333-66666666-44444444-33335533-|
D|-------------------66666666----------|


--------------------------------------------------------------------------------------------------------

[Riff4] Repeat Riff 3 times

* Tremolo Each cord for each 16th note. Spacing is for readability

d|-------------------------------------------------------------------|
A|-------------------------------------------------------------------|
F|-5555-5555-5555-5555-10101010-10101010-10101010-10101010-10101010--|
C|-3333-3333-3333-3333-8-8-8-8--8-8-8-8--8-8-8-8--8-8-8-8--8-8-8-8---|
G|-------------------------------------------------------------------|
D|-------------------------------------------------------------------|

d|----------------------------------------------| 
A|-3333-3333-3333-3333-1111222222222221111------|
F|-1111-1111-1111-1111--------------------3333--|
C|----------------------------------------------|
G|----------------------------------------------|
D|----------------------------------------------|

* The last part is a layered second guitar.
* The last five tremoloed notes hold the same 4/4 time signature as the first tremoloed chord.

--------------------------------------------------------------------------------------------------------

[Outro]

d|--------------------------1(1)-|
A|--------------------------1(1)-|
F|--------------------------1(1)-|
C|-3(3)-----3(3)------------3(3)-|
G|-3(3)-----3(3)------------3(3)-|
D|-1(1)-----1(1)------------1(1)-|



************************************

| (n)  Ghost note

************************************
Suggest correction
Give kudos to tab author, rate the tab!
1 2 3 4 5
comments
print report bad tab
guest
You may want to rate the tab now too:
select rating
Wanna post a correction for this tab? Suggest correction