Oops, an error
Loading. Please wait.

If Your Girl Only Knew bass

by Aaliyah
2,556 views 12 this week
no commentswrite comment
1 2 3 4 5
3 more votes to show rating
add to favorites
×
Save as Personal and add changes to this tab that will be seen only by you. Learn more ›
×
You can save this tab as Personal to edit and correct it or add notes. All changes will be seen only by you. Learn more »
launch autoscroll
font size
0
reset
guitar tuner
edit
Autoscroll
slow
fast
+/-
esc
set tempo
stop
Author
Difficulty

-------------------------------------------------------------------------------
			    IF YOUR GIRL ONLY KNEW - Aaliyah
-------------------------------------------------------------------------------

Tabbed By : Brady McCluer
e-mail: 

Tuning: standard




G|--------------4-------4---5---|---9h10--9-----------9--10--12--------------|
D|---7--------------------------|--------------------------------------------|
A|------------------2-----------|--------------5---7-------------------------|
E|5-----5---3-------------------|--------------------------------------------|

G|--------------4-------4---5---|---9h10--9---------7h9----7h9---------------|
D|---7--------------------------|--------------------------------------------|
A|------------------2-----------|--------------5-----------------------------|
E|5-----5---3-------------------|--------------------------------------------|





Sounds good fingered or slapped.... choose your flavor.

The hammer-ons are quick little grace notes but the rest should be counted
as eighth notes

Repeats the whole song with little or no variation


| /  slide up
| \  slide down
| h  hammer-on
| p  pull-off
| ~  vibrato
| +  harmonic
| x  Mute note
===============================================================================

            
            
Suggest correction
Creating personal tab
Creating personal tab
You can edit any tab online and save it as your Personal.

You can edit, replace or remove any tab part or add personal notes – all changes will be seen only by you.

Personal tabs can be accessed anytime from any device, even offline.
Learn more »
Give kudos to tab author, rate the tab!
1 2 3 4 5
comments
print report bad tab
guest
You may want to rate the tab now too:
select rating
Wanna post a correction for this tab? Suggest correction