Oops, an error
Loading. Please wait.

Ld intro tab

version 1
version 1

Intro

15,441 views 27 this week
3 commentsread comments
1 2 3 4 5
x 10
add to favorites
×
Save as Personal and add changes to this tab that will be seen only by you. Learn more ›
×
You can save this tab as Personal to edit and correct it or add notes. All changes will be seen only by you. Learn more »
launch autoscroll
font size
0
reset
how to read this tab
guitar tuner
edit
Autoscroll
slow
fast
+/-
esc
set tempo
stop
Author
Difficulty
Unregistered
-------------------------------------------------------------------------------
                             LSD - ASAP ROCKY
-------------------------------------------------------------------------------
Tabbed by: Mert Benning
E-mail: mert321@mail.com

Use a shitload of reverb

Tuning: Standard ( E A D G B e )


e|--------------------------------------|
B|-------------12/7---------------------|
G|---5----------------------------------|
D|--------------------------------------|
A|--------------------------------------|
E|--------------------------------------|

e|--------------12/7--------------------|
B|--------------12/7-7h8h7--------------|
G|---5----------------------------------|
D|--------------------------------------|
A|--------------------------------------|
E|--------------------------------------|



************************************

| /   slide up
| \   slide down
| h   hammer-on
| p   pull-off
| ~   vibrato
| +   harmonic
| x   Mute note
| b   Bend
| pb  Pre-bend
| br  Bend release
| pbr Pre-bend release
| brb Bend release bend

************************************

            
            
Suggest correction
Creating personal tab
Creating personal tab
You can edit any tab online and save it as your Personal.

You can edit, replace or remove any tab part or add personal notes – all changes will be seen only by you.

Personal tabs can be accessed anytime from any device, even offline.
Learn more »
comments
print report bad tab
3 comments total.
0 reply
willabbey 32 Jul 04, 2016 04:52 PM

I think ( e ) is tuned down to ( D ). That's what I hear on the slide down anyway.

guest
Wanna post a correction for this tab? Suggest correction