Oops, an error
Loading. Please wait.

Lsd Tab

64 views 12 this week
no commentswrite comment
1 2 3 4 5
2 more votes to show rating
add to favorites
launch autoscroll
font size
0
reset
how to read this tab
guitar tuner
Autoscroll
slow
fast
+/-
esc
set tempo
stop
Help us to improve Ultimate-Guitar.com Take our survey!
×
Author
Difficulty
novice
the chords C G D repeat throughout the entire song

[Intro]

e|----------------------------------------------------------------|
B|---1/12\7-------1/12\7/8----------------------------------------|
G|----------------------------------------------------------------|
D|----------------------------------------------------------------|
A|----------------------------------------------------------------|
E|----------------------------------------------------------------|

e|-----10\5---------10\5------------------------------------------|
B|---1-12\7-------1-12\7------------------------------------------|
G|----------------------------------------------------------------|
D|----------------------------------------------------------------|
A|----------------------------------------------------------------|
E|----------------------------------------------------------------|


[Verse]

e|----------------------------------------------------------------|
B|----------------------------------------------------------------|
G|----------------------------------------------------------------|
D|----------------------------------------------------------------|
A|---3-----------5------------------------------------------------|
E|---------3------------------------------------------------------|

intro comes back in at 1:03

1:18
e|---------12\----------------------------------------------------|
B|-------------12---10--------------------------------------------|
G|---11h12--------11-----11h12-11-9-------------------------------|
D|----------------------------------------------------------------|
A|----------------------------------------------------------------|
E|----------------------------------------------------------------|

1:53
e|----12----12----12----12----------------------------------------|
B|------10----10----10----10--------------------------------------|
G|--------11----11----11----11------------------------------------|
D|----------------------------------------------------------------|
A|----------------------------------------------------------------|
E|----------------------------------------------------------------|

the last two parts fade in and out through rest of the song

for the bridge you still play C G D but you strum each chord 
for longer and need to listen closely for when they change


****************

/ - slide up
\ - slide down
h - hammer on

***************
Suggest correction
Give kudos to tab author, rate the tab!
1 2 3 4 5
comments
print report bad tab
guest
You may want to rate the tab now too:
select rating
Wanna post a correction for this tab? Suggest correction