Oops, an error
Loading. Please wait.

Bonghits For Breakfast Tab

version 1
version 1

Solo

Whole song

354 views 1 this week
no commentswrite comment
1 2 3 4 5
please rate
add to favorites
launch autoscroll
font size
0
reset
how to read this tab
guitar tuner
Autoscroll
slow
fast
+/-
esc
set tempo
stop
Help us to improve Ultimate-Guitar.com Take our survey!
×
Author
This song is tuned down a half step, but I'm gonna tab this in Drop-Eb so you don't have 
to detune much. That's Eb-A-D-G-B-E from low to high. So here it is!

/=slide up
|=bar
h=hammer-on
b=bend a full step
r=release bend
trem. picking=alternate picking as fast as possible
()[1st]=continue trem. picking
()[2nd]=note in parentheses should be barely heard
b.25=bend a quarter step

------------------------|--------------14-----|
------------------------|---------14-16--16---|
---------------------11-|-13-13/15---------16-|
----------------11-13---|---------------------|
------9-11-11/13--------|---------------------|
-10-12------------------|---------------------|

--------------------|---------------------------|
--------------------|---------------------------|
-15--13--13-14-13---|-13------------------------|
---16--16--------16-|---16-13--13-16-13-13------|
--------------------|--------16-----------16-15-|
--------------------|---------------------------|

----------------------|---------------------|
----------------------|---------------------|
----------------------|---------------------|
-------------------11-|---------------------|
-15/16-15-13-13h15-13-|-11------------------|
----------------------|---15-14-12-10-12-14-|

-------------------|----------------|
-------------------|----------------|
-------------------|----------------|
-----11---11-11-11-|-11-11-11-11-11-|
---11--13-13-13-13-|-13-13-13-13-13-|
-15----------------|----------------|

-----------------------------------------|-----------------------------|
-----------------------------------------|----14------------14--14--14-|
-10--------------------10h11-11/13-13-11-|-13b--13r-11-13/15--15--15---|
------------------11h13------------------|-----------------------------|
--------9h11-11/13-----------------------|-----------------------------|
---10h12---------------------------------|-----------------------------|

----------------------------------|------------------------------|
---14--14/16-16-16-14-13-----13---|------------------------------|
-15--15------------------------13-|-11-10-11-10------------------|
------------------------10/11-----|------------13-11--11h13-11---|
----------------------------------|-----------------13--------11-|
----------------------------------|------------------------------|

----------------------------|-------------------------|
----------------------------|-------------------------|
----------------------------|-------------------------|
----------------------------|--------------11--11--11-|
-11/12\11-11-9-8-11-11-9-11-|-9-11-12-11/13--13--13---|
----------------------------|-------------------------|

trem. picking
--------------|----------------|
--------------|----------------|
--------------|----------------|
-11-----------|-(11)-----------|
-13-----------|-(13)-----------|
--------------|----------------|

----------------------|-----------------------|
----------------------|-----------------------|
----------------------|-----------------------|
-11/13-11-10-11-10-11-|-13-13-11-10-11-10-11--|
----------------------|---------9-------------|
----------------------|-----------------------|

------------------------|-----------------------|---|
------------------------|-----------------------|---|
------------------------|-----------------------|---|
-11/13-11---10-11-10-11-|-----------------------|---|
---------(9)------------|-11-9------------------|---|
------------------------|-----12-10-7-6-5-3b.25-|-0-|
Suggest correction
What's this?
You can suggest a correction to this tab. Community and Mods will review your correction and vote to approve or reject it.
comments
We did not receive enough feedback on this tab! Please rate:
print report bad tab
1 2 3 4 5
guest
You may want to rate the tab now too:
select rating
Please do not post tabs as comments. Select "correction" instead!