Oops, an error
Loading. Please wait.

Outside Tab

version 1
version 1

Solo

Whole song

2,242 views 1 this week
no commentswrite comment
1 2 3 4 5
2 more votes to show rating
add to favorites
launch autoscroll
font size
0
reset
how to read this tab
guitar tuner
Autoscroll
slow
fast
+/-
esc
set tempo
stop
Help us to improve Ultimate-Guitar.com Take our survey!
×
Author
This is the solo from J-CAT's version of Outside, recorded in 1999. The guitar is 
tuned down a half step, but this tab is in standard so you don't have to detune. Here ya go!

b=bend a full step
|=bar
()=hold note after the bar line
r=release bend
b.5=bend a half step
/=slide up
p=pull-off
h=hammer-on

----------------------------------------------|
----14-14---14-14---14-14---14-14-------14-14-|
-13b-----13b-----13b-----13b-----13b-13b------|
----------------------------------------------|
----------------------------------------------|
----------------------------------------------|

--------------------------------------------|
--14----------------------------------------|
-(13)-13-11-13-11--------11-----------11-13-|
-----------------13-11-13--13-13-11-10------|
--------------------------------------------|
--------------------------------------------|

-------------------------------------------------------------------|
-------------------------------------------------------------------|
-13b.5-13-11-13b.5-13-11-13b.5-13-11-13b.5-13-11-13b.5-13-11-13b.5-|
-------------------------------------------------------------------|
-------------------------------------------------------------------|
-------------------------------------------------------------------|

----------------------------------------------------|
----------------------------------------------------|
-13-11-13b.5-13-11-13-13/14-14/15-15-15-15/16-16-15-|
----------------------------------------------------|
----------------------------------------------------|
----------------------------------------------------|

-------------------------------------------|
---------16-18-19-18p14--------------------|
-15-15-16--------------16-15-15h16-15-13==-|
----------------------------------------16-|
-------------------------------------------|
-------------------------------------------|

--------------------------------------------|
--------------13-11-9--11-9--------9--------|
--------------13-11-10-11-10-11-10-10-11-10-|
-(16)-16-11h13---------------13-11----13-11-|
--------------------------------------------|
--------------------------------------------|

---------------|------------------|
---------------|------------------|
-11-10-8-6-5-3-|-(3)-3-3----------|
-13-11-9-8-6-4-|-(4)-3-4----------|
---------------|------------------|
---------------|------------------|
Suggest correction
Give kudos to tab author, rate the tab!
1 2 3 4 5
comments
print report bad tab
guest
You may want to rate the tab now too:
select rating
Wanna post a correction for this tab? Suggest correction