Oops, an error
Loading. Please wait.

Red White And Blue Tab

552 views 6 this week
no commentswrite comment
1 2 3 4 5
please rate
add to favorites
launch autoscroll
font size
0
reset
how to read this tab
guitar tuner
Tab Pro tools
  • play this tab
  • loop segment
  • change instrument
  • show fretboard
  • metronome
×
Best way to learn
"Red White And Blue"
Autoscroll
slow
fast
+/-
esc
set tempo
stop
Contributor
Capo
1st fret
--AARON LEWIS - RED, WHITE, AND BLUE--

Here's all the guitar parts to the song I could figure out:

Tuning:
Acoustic Guitar (Eb-Ab-Db-Gb-Bb-Eb)
Optional Acoustic Guitar (E-A-D-G-B-E) Capo I
Electric Guitar (slight distortion) (Db-Ab-Db-Gb-Bb-Eb)
(Acoustic written as chords, Electric written as tab.)

G/F A/G D/C - Acous./Optional Acous.
x - mute string
b - full (whole step) bend
b.5 - half step bend
pb - full pre-bend
pb.5 - half step pre-bend
r - release bend
h - hammer-on
p - pull-off
. - stacatto
/ - slide up
\ - slide down
PM - palm mute
~ - vibrato
fermata - hold for a while

6/8
Intro (0:00)
                     G/F           A/G           D/C
   |     |   |       |       | |   |   | |       | | | | | |
-------------------|---------------------------|---------------|
-------------------|-3---3---------5-----------|---------------|
---------0-------2-|-2h4-2h4-------4br-2-------|-------------0-|
-x-2b.5r-0-0-2/4---|---------------------2b.5r-|-0-------------|
---------.---------|-------------0-------------|---------------|
-------------------|---------------------------|---------------|
           PM                    PM

 G/F       A/G             D/C
 |   | |   |      |  |     | | | | | |
------------------------|--------------|
--------------5---------|--------------|
-2br-0-2-0-4b---pb4r-2/-|-/7-----------|
------------------------|--------------|
------------------------|--------------|
------------------------|--------------|

Verse (0:15)/(1:52)/(3:43)
G/F D/C A/G D/C
G/F D/C A/G A/G
G/F D/C A/G D/C
G/F D/C A/G A/G
G/F A/G D/C D/C (third time only)

Pre-Chorus (0:43)/(2:19) (skip third time)
Em/Dm G/F D/C A/G
Em/Dm G/F D/C A/G
G/F A/G D/C D/C

Chorus (1:16)/(2:53)/(4:18)
G/F D/C A/G D/C
G/F D/C A/G D/C
G/F D/C A/G D/C

Interlude (1:38)
         G/F           D/C          A/G            D/C
 |       |     | |     |  | |       |   | |        |     | |
-------|--------------------------|--------------------------|
-------|--------------------------|--------------------------|
-------|-----------7--------------|--------------------7-----|
-----5-|-7b-7b-------pb7r---------|--------------------7-----|
-5h7---|-.------------------7brp5-|-7-0-7-7pb.5r-5-7/9-------|
-------|--------------------------|--------------------------|

 G/F     D/C     A/G
 |   | | | | |   | | | | | |
---------------|-------------|
---------------|-------------|
---------------|-------------|
-7/9-----------|-------------|
---------------|-------------|
---------------|-------------|

Guitar Solo (3:15)
The rhythm is the Chorus
    |          |     | |       |       | |
-------------|--------------------------------|
-------------|--------------------------------|
-------------|-----------------------------14-|
-------------|-12-12-----------14b-14b--------|
-------12-14-|-.---------14-12-.--------------|
-12-16-------|--------------------------------|

 |   | |       |       |        |
-----------------------------------------|
--------------------------------------15-|
-----------------------------14-14/16----|
-14r---14brp12-14brp12-14/16-------------|
-----------------------------------------|
-----------------------------------------|

 |    |   |    |        |        |
      hold bend------------------|
------------17----17----17----17--------|
-15---17b------17----17----17----17r-15-|
-----x----------------------------------|
----x-----------------------------------|
----------------------------------------|
----------------------------------------|

 |    |     |        |     |        |
                        ~~
---------------------------------------------|
-15br-17b.5----------13----------------------|
------17b.5-14p12-------14-12----------------|
------------------14----------14-12----------|
------------------------------------15b.5-12-|
---------------------------------------------|

 |     | | | | |
-----------------|
-----------------|
-----------------|
-----------------|
-15/17-----\-----|
-----------------|

Outro    5:04
The rhythm is the Chorus
 |       |     | |        |     | |
-------|----------------------------|
-------|----------------------------|
-------|-7--7-------------7---------|
-----7-|-7b-7b-----7pbr---7---------|
-7/9---|-.--------------9---7h9---\-|
-------|----------------------------|

 |   | |     |     | |     |     | |   |     | |
-------------------------|-----3-------2--2---------|
-------------------3-----|-------------x--x---------|
-----------------2---5br-|-2/4---------2b-2b---2pbr-|
-----------0-2/4---------|-----------x-.------------|
-2br-0-0h2---------------|--------------------------|
-------------------------|--------------------------|

 |   |      |     |     |     |       | | | | | |
-3-2--------------------------------|-------------|
-.---5------------------------------|-------------|
-------4pbr-2-0---------------------|-------------|
----------------2-1-0-----2---------|-------------|
----------------------3h4---4-2-0---|-------------|
----------------------------------4-|-5-----\-----|

 | | | | | |   | | |   | | |     |   | |   | | |
                                           fermata
-------------|-----------------|-----------------|
-------------|-----------------|-----------------|
-------------|---2-2h4---------|-----------------|
-----------4-|-5-------0-2-2/4-|-----------------|
-----------.-|-----------------|-2br-0-----------|
-------------|-----------------|-------2br-0-----|
comments
We did not receive enough feedback on this tab! Please rate:
print report bad tab
1 2 3 4 5
I want to post or [tab]
guest
You may want to rate the tab now too:
select rating
Please do not post tabs as comments. Select "correction" instead!