Oops, an error
Loading. Please wait.

Tangled Up In You Tab

version 2
version 2

Whole song

3,336 views 6 this week
no commentswrite comment
1 2 3 4 5
please rate
add to favorites
launch autoscroll
font size
0
reset
how to read this tab
guitar tuner
Autoscroll
slow
fast
+/-
esc
set tempo
stop
Help us to improve Ultimate-Guitar.com Take our survey!
×
Author
Difficulty
Capo
novice
1st fret
-----------------------------------------------------------------------------
     Tangled Up in You – Aaron Lewis
-----------------------------------------------------------------------------
 
 
Tabbed by: Ryan (rmhillman@yahoo.com)
 
Tuning: CGDBGe - This isn't exactly how Aaron tunes/plays it, but it works for me

Live Version
 
Capo 1st fret


1st Verse 4x
e|--------------------------------------------------------------------------------------------------|
B|--------------------------------------------------------------------------------------------------|
G|--------------------------------------------------------------------------------------------------|
D|---------------0--2-----------------0--2---------------------5--7-----------------5--7------------|
G|------------0--------------------0------------------------5--------------------5------------------|
C|---------0--------------------0------------------------5--------------------5---------------------|
 
You're my  world            the shelter from the rain
You're the pill            that takes away my pain
You're the light           that helps me guide my way
You're the words           when I have nothing to say


Chorus 2x
e|--------------------------------------------------------------------------------------------------|
B|--------------------------------------------------------------------------------------------------|
G|--------------------------------------------------------------------------------------------------|
D|--------------9---10-----------------9---10------------------5--7-----------------5--7------------|
G|-----------9---------------------9------------------------5--------------------5------------------|
C|--------9---------------------9------------------------5--------------------5---------------------|

  In this world           where nothing    else is true
  Here I  am              still tangled    up in you                I'm still tangled up in you


e|--------------------------------------------------------------------------------------------------|
B|--------------------------------------------------------------------------------------------------|
G|--------------------------------------------------------------------------------------------------|
D|---------------0--2-----------------0--2---------------------5--7-----------------5--7------------|
G|------------0--------------------0------------------------5--------------------5------------------|
C|---------0--------------------0------------------------5--------------------5---------------------|

                                                                    I'm still tangled up in you


e|--------------------------------------------------------------------------------------------------|
B|--------------------------------------------------------------------------------------------------|
G|--------------------------------------------------------------------------------------------------|
D|---------------0--2-----------------0--2---------------------5--7-----------7---------------------|
G|------------0--------------------0------------------------5-----------------5---------------------|
C|---------0--------------------0------------------------5--------------------5---------------------|


2nd Verse 4x
e|--------------------------------------------------------------------------------------------------|
B|--------------------------------------------------------------------------------------------------|
G|--------------------------------------------------------------------------------------------------|
D|---------------0--2-----------------0--2---------------------5--7-----------------5--7------------|
G|------------0--------------------0------------------------5--------------------5------------------|
C|---------0--------------------0------------------------5--------------------5---------------------|
 
You're the fire            that warms me when I'm cold
You're the hand I have to hold          as I grow old
You're the shore           when I am lost at sea
You're the only thing that   I       like about me


Chorus 2x
e|--------------------------------------------------------------------------------------------------|
B|--------------------------------------------------------------------------------------------------|
G|--------------------------------------------------------------------------------------------------|
D|--------------9---10-----------------9---10------------------5--7-----------------5--7------------|
G|-----------9---------------------9------------------------5--------------------5------------------|
C|--------9---------------------9------------------------5--------------------5---------------------|

  In this world           where nothing    else is true
  Here I  am              still tangled    up in you                I'm still tangled up in you


Bridge 2x
e|--------------------------------------------------------------------------------------------------|
B|--------------------------------------------------------------------------------------------------|
G|--------------------------------------------------------------------------------------------------|
D|--------------9---10----------------5--7---------------------0--2-----------------9---10----------|
G|-----------9---------------------5------------------------0--------------------7------------------|
C|--------9---------------------5------------------------0--------------------7---------------------|

                            How long has it been                   since this story line began
                         And I  hope   it  never   ends      and goes like this forever


Chorus 2x
e|--------------------------------------------------------------------------------------------------|
B|--------------------------------------------------------------------------------------------------|
G|--------------------------------------------------------------------------------------------------|
D|--------------9---10-----------------9---10------------------5--7-----------------5--7------------|
G|-----------9---------------------9------------------------5--------------------5------------------|
C|--------9---------------------9------------------------5--------------------5---------------------|

  In this world           where nothing    else is true
  Here I  am              still tangled    up in you                I'm still tangled up in you


e|--------------------------------------------------------------------------------------------------|
B|--------------------------------------------------------------------------------------------------|
G|--------------------------------------------------------------------------------------------------|
D|---------------0--2-----------------0--2---------------------5--7-----------------5--7------------|
G|------------0--------------------0------------------------5--------------------5------------------|
C|---------0--------------------0------------------------5--------------------5---------------------|

                                                                    I'm still tangled up in you


e|--------------------------------------------------------------------------------------------------|
B|--------------------------------------------------------------------------------------------------|
G|--------------------------------------------------------------------------------------------------|
D|---------------0--2-----------------0--2---------------------5--7-----------------5--7------------|
G|------------0--------------------0------------------------5--------------------5------------------|
C|---------0--------------------0------------------------5--------------------5---------------------|

                                                                        Still tangled up   in


e|---------------|
B|---------------|
G|---------------|
D|---------2-----|
G|---------0-----|
C|---------0-----|

           you
Suggest correction
What's this?
You can suggest a correction to this tab. Community and Mods will review your correction and vote to approve or reject it.
comments
We did not receive enough feedback on this tab! Please rate:
print report bad tab
1 2 3 4 5
guest
You may want to rate the tab now too:
select rating
Please do not post tabs as comments. Select "correction" instead!