Oops, an error
Loading. Please wait.

My Savior My God Tab

version 1
version 1

Whole song

51,196 views 42 this week
4 commentsread comments
1 2 3 4 5
accurate
x 20
add to favorites
launch autoscroll
font size
0
reset
how to read this tab
guitar tuner
Tab Pro tools
  • play this tab
  • loop segment
  • change instrument
  • show fretboard
  • metronome
×
Best way to learn
"My Savior My God"
Autoscroll
slow
fast
+/-
esc
set tempo
stop
Contributor
Difficulty
Capo
novice
7th fret
Capo: 7th fret

Intro:

----------------------------------------|
---3--3--3--3----3--3----3--------------|
---4--4--4--4p2--2--2p0--0---0--0--0----|
---0--0--0--0----0--0----0---0--0--0----|
-----------------------------2--2--2----|
-----------------------------3--3--3----|


--------------------------------------------------------------------|
---3--3--3--3----3--3----3------------------------------------------|
---4--4--4--4p2--2--2p0--0---0--0--0--0----0--0--0--0--0--0--0--0---|
---0--0--0--0----0--0----0---2--2--2--2----2--2--0--0--0--0--0--0---|
-----------------------------2--2--2--2h3--3--3--2--2--0--0--0--0---|
-----------------------------0--0--0--0----0--0--3--3--2--2--2--2---|


----------------------------------------|
---3--3--3--3----3--3----3--------------|
---4--4--4--4p2--2--2p0--0---0--0--0----|
---0--0--0--0----0--0----0---0--0--0----|
-----------------------------2--2--2----|
-----------------------------3--3--3----|


Verse:
                            G
I am not skilled to understand
                                      Em
What God has willed, what God has planned
                          Dsus
I only know at his right hand
                       G
Stands One who is my Savior


                             G
I take Him at His word and deed
                                Em
Christ died to save me this I read
                           Dsus
And in my heart I find a need
                     G
For Him to be my Savior


Bridge:
                                  C2
That He would leave His place on high
                            G
And come for sinful man to die
                                  Dsus
You count it strange, so once did I
                   G
Before I knew my Savior


Chorus:
           Em                C2
My Savior loves, my Savior lives
            G                G/F#
My Savior's always there for me
           Em           C2
My God he was, my God he is
             G            Dsus
My God he's always gonna be


Verse:
                            G
Yes, living, dying; let me bring
                                  Em
My strength, my solace from this spring
                            Dsus
That He who lives to be my King
                     G
Once died to be my Savior

                                 C2
That He would leave his place on high
                            G
And come for sinful man to die
                                  Dsus
You count it strange, so once did I
                   G
Before I knew my Savior
comments
print report bad tab
4 comments total. Showing first comments.
0 reply
indiglopulse wrote on December 28 2008, 01:44 pm

using the same rhythm from this:
----------------------------------------|
---3--3--3--3----3--3----3--------------|
---4--4--4--4p2--2--2p0--0---0--0--0----|
---0--0--0--0----0--0----0---0--0--0----|
-----------------------------2--2--2----|
-----------------------------3--3--3----|

play this in the verses:
----------------------------------------|
----------------------------------------|
-------------------------0-0------------|
-----0-0-0-0---x0--------0-0------------|
-----2-2-2-2p0-x0 0---x0-2-2------------|
------------------5\3-x3-3-3------------|

it's the same thing just an octave lower... sounds cool and is easy to play in between singing each line

0 reply
elvispresley2 wrote on April 17 2009, 06:01 pm

This is 100% correct thanx!!!!!!!!!!!!!!!!!!!!!!!!!!!!!

0 reply
NickPerovich wrote on May 13 2013, 10:43 pm

The C2'should be C's and the Dsus's should be D's

I want to post or [tab]
guest
You may want to rate the tab now too:
select rating
Please do not post tabs as comments. Select "correction" instead!