Oops, an error
Loading. Please wait.

My Savior My God Chords

version 2
version 2

Whole song

30,489 views 12 this week
2 commentsread comments
1 2 3 4 5
accurate
x 3
add to favorites
launch autoscroll
font size
0
reset
transpose
0
reset
display chords
guitar tuner
Autoscroll
slow
fast
+/-
esc
set tempo
stop
Help us to improve Ultimate-Guitar.com Take our survey!
×
Contributor
Difficulty
intermediate
Hey guys, here's Aaron Shust- My Savior My God tabs/chords. It's not 100% correct
but its close. If there's any defects then contact me and i'll do an update. Thanks. 
-NnTforever-

Bm:x24432 
G:320033
A:x02220
D:xx0232



Aaron Shust- My Savior My God

Intro
e|-2-2-2-2p0-0-------------------------|
B|-3-3-3-3-----3---3--3-----3--3-----3-|
G|-----------------2----2---2----2---2-|
D|---------------0--------0--------0---|
A|-------------------------------------|
E|-------------------------------------|

e|-2-2-2-2p0-0-------------------------|
B|-3-3-3-3-----3---3--3-----3--3-----3-|
G|-----------------0----0---0----0---0-|
D|-------------------------------------|
A|---------------2--------2--------2---|
E|-------------------------------------|

e|-3-3-3-3p2-2p0---0--0-----0--0-----0-|
B|-3-3-3-3---3-----3----3---3----3---3-|
G|-----------------2--------2--------2-|
D|-------------------------------------|
A|---------------0--------0--------0---|
E|-------------------------------------|

Verse

I am not skilled to understand...
What God has willed, what God has
e|----------------------------------|
B|-3---3--3-----3--3-----3--3-----3-|
G|-----2----2---2----2---2----2---2-|
D|---0--------0--------0--------0---|
A|----------------------------------|
E|----------------------------------|

planned...I only know at His right 
e|-------------------------------------|
B|--3-----3--3-----3--3-----3--3-----3-|
G|----2---0----0---0----0---0----0---0-|
D|-------------------------------------|
A|------2--------2--------2--------2---|
E|-------------------------------------|

hand...Stands one who is my  
e|--------0--0-----0--0-----0--0-----0-|
B|--3-----3----3---3----3---3----3---3-|
G|----2---2--------2--------2--------2-|
D|-------------------------------------|
A|------0--------0--------0--------0---|
E|-------------------------------------|

Savior 
e|-----------------------|
B|-3---3--3-----3--3-----|
G|-----2----2---2----2---|
D|---0--------0--------0-|
A|-----------------------|
E|-----------------------|

D
I take Him at His word and deed
                                G
Christ died to save me; this I read
                          A
And in my heart I find a need
                  D
Of Him to be my savior

                                 G
That He would leave His place on high
                    A
And come for sinful man to die
                                  G
You count it strange, so once did I
                     D
Before I knew my Savior


Chorus (2x's)
    Bm                      G
My Savior loves, My Savior lives
            D                A
My Savior's always there for me
     Bm                   G
My God He was, my God He is
        D                   A
My God he's is always gonna be

 D                         
Yes, living, dying, let me bring
                                   G
My strength, my solace from this spring;
                            A
That He who lives to be my King
                    D
Once died to be my Savior

                                  G
That He would leave His place on high
                            A
And come for sinful man to die
                                  G
You count it strange, so once did I
                  D
Before I knew my Savior


Chorus (2x's)
    Bm                      G
My Savior loves, My Savior lives
            D                A
My Savior's always there for me
     Bm                   G
My God He was, my God He is
        D                   A
My God he's is always gonna be



(Instrumental)


Chorus (2x's)
    Bm                      G
My Savior loves, My Savior lives
            D                A
My Savior's always there for me
     Bm                   G
My God He was, my God He is
        D                   A
My God he's is always gonna be


 D               A
My Savior loves, My Savior lives
 D               A 
My Savior loves, My Savior lives
Suggest correction new What's this?
You can suggest a correction to this tab. Community and Mods will review your correction and vote to approve or reject it.
comments
We did not receive enough feedback on this tab! Please rate:
print report bad tab
1 2 3 4 5
2 comments total.
0 reply
aerobrooks 69 wrote on February 20 2008, 12:21 pm

There are some Gs that should be Bms, some As that should be Ds, and some Bms that should be As.

0 reply
bassman03 17 wrote on March 31 2008, 09:39 pm

Idk if he's right, but from what i've played, the beginning part is spot on

I want to post or [tab]
guest
You may want to rate the tab now too:
select rating
Please do not post tabs as comments. Select "correction" instead!