Oops, an error
Loading. Please wait.

Goodbye Carolina Blues tab

865 views 9 this week
4 commentsread comments
1 2 3 4 5
x 6
add to favorites
×
Save as Personal and add changes to this tab that will be seen only by you. Learn more ›
×
You can save this tab as Personal to edit and correct it or add notes. All changes will be seen only by you. Learn more »
launch autoscroll
font size
0
reset
how to read this tab
guitar tuner
edit
Autoscroll
slow
fast
+/-
esc
set tempo
stop
Author
Difficulty
intermediate
Tabbed by: AnarchicKilljoy
Questions: AnarchicKilljoy@gmail.com

"Originally I wrote this tab the day the song was released as a single, and my ear wasn't very trained to pick
out chords. So it was off on a few chords, but as of now it is fixed and correct as far as I know. So enjoy."

[Verse 1]

 Goodbye, Carolina...        Cold...                   Midnight...
         G                       Bm                       Am
e|-------3----------3------|------2-----------2-----|------0----------------------|
B|---------3----------3----|--------3-----------3---|-------1---------0h1---------|
G|-------------0-0---------|------------4-4---------|-----------2-2-------2---2---|
D|-------------------------|------------------------|-----------------------------|
A|-------------------------|--2-2-----2-----2-----2-|--0-0----0-----0-------0-----|
E|--3-3------3-----3----3--|------------------------|-----------------------------|

      Ghost...
       C
e|-----0----------------------|
B|-------1--------------------|
G|---------0-0---0---0--------|
D|----------------------------|
A|-3-3---------3---2---0------|
E|----------------------------|

        Brushed...           Hair off...                  Wish I...                
Window Seat...
         G                       C                            F                       C
e|-------3----------3------|------0--------------0------|------1------------1---|------0--------|
B|---------3----------3----|--------1--------------1----|--------1------------1-|--------1------|
G|-------------0-0---------|-------------0-0------------|-------------2-2-------|-------------0-|
D|-------------------------|----------------------------|-----------------------|---------------|
A|-------------------------|-3-3-------3------3-------3-|-----------3-----3-----|-3-3-------3---|
E|--3-3------3-----3----3--|----------------------------|-1-1-------------------|---------------|


[Instrumental]

G Bm C Em D


[Verse 2]

   Good Morning...             Port Authority...         Train..
         G                       Bm                       Am
e|-------3----------3------|------2-----------2-----|------0----------------------|
B|---------3----------3----|--------3-----------3---|-------1---------0h1---------|
G|-------------0-0---------|------------4-4---------|-----------2-2-------2---2---|
D|-------------------------|------------------------|-----------------------------|
A|-------------------------|--2-2-----2-----2-----2-|--0-0----0-----0-------0-----|
E|--3-3------3-----3----3--|------------------------|-----------------------------|

      A out To G...
       C
e|-----0----------------------|
B|-------1--------------------|
G|---------0-0---0---0--------|
D|----------------------------|
A|-3-3---------3---2---0------|
E|----------------------------|

      Walk along...            Dollar cup...                Stain my teeth..       Two sugars...
         G                       C                            F                       C
e|-------3----------3------|------0--------------0------|------1------------1---|------0--------|
B|---------3----------3----|--------1--------------1----|--------1------------1-|--------1------|
G|-------------0-0---------|-------------0-0------------|-------------2-2-------|-------------0-|
D|-------------------------|----------------------------|-----------------------|---------------|
A|-------------------------|-3-3-------3------3-------3-|-----------3-----3-----|-3-3-------3---|
E|--3-3------3-----3----3--|----------------------------|-1-1-------------------|---------------|



[Instrumental]
G Bm C Em D


[Verse 3]


G                                           Bm                                       Am
God damn I missed you, Brooklyn. Caught my breath here on your streets. I left my winter

coat in Charlotte.
     C                          G                                      C
I’m cursing at the breeze. I’m hiding out from early March. Read the sign hung in

our lobby. The elevator
F                                     C
broke last week. I walk the stairs to 403.


          Em             D          C                  Em              D            C
I don’t blame you for changing the locks. I think I’d probably do the same if it
             Em
were me. I’m gathering up the
 D           C                             Am                            C
courage to knock. I’m not sure what I’m looking for. I don’t know what I want. I
       G
don’t want anything.
             Eb
I don’t want anything.


G                                         Bm                                   Am
Some college student answers and my heart crash-lands on the floor. He says he sublet

this place last month.
          C                      G                              C
He never heard of me before. He sees me there collapsing and he opens up the door.
          F
It’s all new furniture.
                  C
I barely recognize it anymore.


                  Em         D                C            Em           D
He says, I’m sorry, man. I wish that I knew more. I’m not sure exactly what you’re
         C            Em
looking for, but no Diane,
               D             G          C         
no, she don’t live here anymore, anymore, anymore.
Am             C            G
Diane don’t live here anymore.

************************************

| h  Hammer-on

************************************

            
            
Suggest correction
Creating personal tab
Creating personal tab
You can edit any tab online and save it as your Personal.

You can edit, replace or remove any tab part or add personal notes – all changes will be seen only by you.

Personal tabs can be accessed anytime from any device, even offline.
Learn more »
comments
print report bad tab
4 comments total. Showing first comments.
0 reply
AlBassStar 20 Jul 23, 2016 03:54 AM

Wrong, unfortunately. Some little bits are right but the rest is just bad.

0 reply
TheJamesinator1 10 Jul 24, 2016 06:23 AM

chords are incorrect. look at the other chords tab on here and use that as a guide. a a a a

guest
You may want to rate the tab now too:
select rating
Wanna post a correction for this tab? Suggest correction