Oops, an error
Loading. Please wait.

St Joe Keeps Us Safe Live Acoustic Tab

1,358 views 3 this week
no commentswrite comment
1 2 3 4 5
please rate
add to favorites
launch autoscroll
font size
0
reset
how to read this tab
guitar tuner
Autoscroll
slow
fast
+/-
esc
set tempo
stop
Help us to improve Ultimate-Guitar.com Take our survey!
×
Contributor
-------------------------------------------------------------------------------
  St. Joe Keeps Us Safe (live acoustic) - Aaron West and The Roaring Twenties
-------------------------------------------------------------------------------
Tabbed by:Levie Galapon
E-mail: leviegalapon@gmail.com

Tuning:standard
Note: I used the following youtube clip to figure this tab out. 
https://www.youtube.com/watch?v=eApV-6pFSLg


Verse x2
e|---2----------------2--------------------------------------------------------|
B|---0-----3-----1----3---------------------------------------------------------|
G|---0-----4-----0----2---------------------------------------------------------|
D|---0-x12 4-x12-2-x6-0-x6-2-x4-2-x4 --------------------------------------------|
A|---2-----2-----3---------2----2------------------------------------------------|
E|---3---------------------0----0-----------------------------------------------|
Post-verse x1
e|---2----------2--------------------------------------------------------------|
B|---3----------3----1----------------------------------------------------------|
G|---2----------2----0----------------------------------------------------------|
D|---0-x12-2-x3-0-x3-2-x12------------------------------------------------------|
A|---------2---------3----------------------------------------------------------|
E|---------0------------------------------------------------------------------|
Verse x2
e|---2----------------2--------------------------------------------------------|
B|---0-----3-----1----3---------------------------------------------------------|
G|---0-----4-----0----2---------------------------------------------------------|
D|---0-x12 4-x12-2-x6-0-x6-2-x4-2-x4 --------------------------------------------|
A|---2-----2-----3---------2----2------------------------------------------------|
E|---3---------------------0----0-----------------------------------------------|
Chorus x1
e|---------------------------------------------------------------------------|
B|-----------------------------------0----------4------------------------------|
G|---7---------5---------------------2-----5----5-------------------------------|
D|---7-x6-7-x6-5-x12-5-x6-3-x6-2-x12-2-x12-5-x6-5-x1-----------------------------|
A|---5----7----3-----5----3----2-----0-----3----3-------------------------------|
E|--------5----------3----1----0-------------------------------------------------|
Picked Verse x2
e|---------------------------------------------------------------------------|
B|-------------------3-----3-----5-----7-----0-----0--------------------------------|
G|------0-----0-----4-4---4-4---5-5---7-7---0-0---0-0--------------------------------|
D|-----0-0---0-0---4---4-4---4-5---5-7---7-2---2-2---2----------------------------|
A|----2---2-2---2-2-----2-----3-----5-----2-----2-----------------------------------|
E|---3-----3-------------------------------------------------------------------|
Post-verse x1
e|---2----------2--------------------------------------------------------------|
B|---3----------3----1----1------------------------------------------------------|
G|---2----------2----0----0------------------------------------------------------|
D|---0-x1--2-x1-0-x1-2-x1-2-x6----------------------------------------------------|
A|---------2---------3----3------------------------------------------------------|
E|---------0------------------------------------------------------------------|
Verse x2
e|---2----------------2--------------------------------------------------------|
B|---0-----3-----1----3---------------------------------------------------------|
G|---0-----4-----0----2---------------------------------------------------------|
D|---0-x12 4-x12-2-x6-0-x6-2-x4-2-x4 --------------------------------------------|
A|---2-----2-----3---------2----2------------------------------------------------|
E|---3---------------------0----0-----------------------------------------------|
Chorus x1
e|---------------------------------------------------------------------------|
B|-----------------------------------0-----4-----------------------------------|
G|---7---------5---------------------2-----5-----------------------------------|
D|---7-x6-7-x6-5-x12-5-x6-3-x6-2-x12-2-x12-5-x12------------------------------|
A|---5----7----3-----5----3----2-----0-----3----------------------------------|
E|--------5----------3----1----0-------------------------------------------------|
Bridge x2
e|---------------------------------------------------------------------------|
B|---1-----4-------------------------------------------------------------------|
G|---2-----5-----4----2----------------------------------------------------------|
D|---2-x12-5-x12-5-x6-3-x6-2-x12---------------------------------------------------|
A|---------3-----5----3----2-----------------------------------------------------|
E|---------------3----1----0----------------------------------------------------|
Outro x1
e|---------------------------------------------------------------------------|
B|---------------------------------------------------------------------------|
G|---------------------------------------------------------------------------|
D|---3-x12-10-x12-5-x1------------------------------------------------------------|
A|---3-----10-----5---------------------------------------------------------------|
E|---1-----8------3--------------------------------------------------------------|


Suggest correction new What's this?
You can suggest a correction to this tab. Community and Mods will review your correction and vote to approve or reject it.
comments
We did not receive enough feedback on this tab! Please rate:
print report bad tab
1 2 3 4 5
guest
You may want to rate the tab now too:
select rating
Please do not post tabs as comments. Select "correction" instead!