Oops, an error
Loading. Please wait.

Guardian Angel Bass Tab

652 views 1 this week
no commentswrite comment
1 2 3 4 5
please rate
add to favorites
launch autoscroll
font size
0
reset
guitar tuner
Autoscroll
slow
fast
+/-
esc
set tempo
stop
Help us to improve Ultimate-Guitar.com Take our survey!
×
Author
 Artist: Abandon All Ships
 Track: Guardian Angel
 Album: Geeving
 Tabbed by: Seth LaVallee
 E-mail: stlavallee@hotmail.com

 Tuning: Drop-D (D-A-D-G)

 Bass comes in around 1:06

 Chorus 1 
G|---------------------------------------------------------------------|
D|---------------------------------------------------------------------|
A|-----------------------------(Those are 10's)------------------------| (2x)
D|--00000000-88888888-33333333-1010101010101010------------------------|

 Post-Chorus ~ 1:33
G|---------------------------------------------------|
D|---------------------------------------------------|
A|---------------------------------------------------|
D|--0--000-0---8--888-8---3--333-3---10--101010-10\--|

 Verse 1 ~ 1:46
G|------------------------------------------------------------|
D|------------------------------------------------------------|
A|------------------------------------------------------------|
D|--0000--3-3-3--0000-000-------0000-3-3-3--0000-000----------|

 ~ 1:53
G|------------------------------------------------------------|
D|------------------------------------------------------------|
A|------------------------------------------------------------|
D|--0000--3-3-3--0000-000-------0000-1-1-1--0000-000----------|

 Chorus 2 ~ 2:00
G|---------------------------------------------------------------------|
D|---------------------------------------------------------------------|
A|-----------------------------(Those are 10's)------------------------| (2x)
D|--00000000-88888888-33333333-1010101010101010------------------------|

 Breakdown ~ 2:53
G|--------------------------------------------|
D|--------------------------------------------|
A|--------------------------------------------|
D|--0-000-0-000-0-0-0-1--0-0-0--5-3-1-0-------|
 ~ 2:58
G|------------------------------------------------------------|
D|------------------------------------------------------------|
A|------------------------------------------------------------|
D|--0000--3-3-3--0000--000-------000-3-3-3--5-3-1-0-----------|
 ~3:05
G|---------------------------------------------|
D|---------------------------------------------|
A|---------------------------------------------|
D|--0000--3-3-3--0000--000-------000-3-3-3-000-|

Chorus 3 ~ 3:13
G|----------------------------------------------------|--------|
D|----------------------------------------------------|--------|
A|-----------------------------(Those are 10's)--(2x)-|-End On-|
D|--00000000-88888888-33333333-1010101010101010-------|-0~-----|

End
Suggest correction
Give kudos to tab author, rate the tab!
1 2 3 4 5
comments
print report bad tab
guest
You may want to rate the tab now too:
select rating
Please do not post tabs as comments. Select "correction" instead!