Oops, an error
Loading. Please wait.

Maria I Like It Loud Tab

version 1
version 1

Whole song

Interactive

2,168 views 6 this week
2 commentsread comments
1 2 3 4 5
please rate
add to favorites
launch autoscroll
font size
0
reset
how to read this tab
guitar tuner
Autoscroll
slow
fast
+/-
esc
set tempo
stop
Help us to improve Ultimate-Guitar.com Take our survey!
×
Artist: Abandon All Ships
Song: Maria (I Like It Loud)
Album: Abandon All Ships - EP

Tuning: Drop D
DADGBE


Noo Point Realyy In Making This Since It’s So Easy 2 Learn Haha :P
But WHatverz..






(0:24 – 0:52)
“Eheheh Myspace...”

|-------------------------------------------------------------------|
|-------------------------------------------------------------------|
|-------------------------------------------------------------------|
|-00000000000000-88888888888888888888-33333333333333-00000000000000-|  (x4)
|-00000000000000-88888888888888888888-33333333333333-00000000000000-|
|-00000000000000-88888888888888888888-33333333333333-00000000000000-|



(0:52 – 1:06)
“Maria, Maria, I Like It Loud...”

|-----------------------------------------|
|-----------------------------------------|
|-----------------------------------------| (x2)
|-----------------------------------------|
|-0-0--0000-8-8--8--3-3--3333-2-2--22-3*b-|
|-0-0--0000-8-8--8--3-3--3333-2-2--22-----|
  . .  .... . .  .  . .  .... . .  ..



(1:06 – 1:12)
“LOOUUDD!..”

(Let Ring Out~)
|---------------------------------------------|
|---------------------------------------------|
|---------------------------------------------|
|-------------------------------------------0-|
|-0-0--0000-00-0-00-0--0-0--0000-00-0-00-0--0-|
|-0-0--0000-00-0-00-0--0-0--0000-00-0-00-0--0-|
  . .  .... .. . .. .  . .  .... .. . .. .


“Maria Believe Me I Like It Loud...”




Please Rate/Comment (:
Suggest correction
Give kudos to tab author, rate the tab!
1 2 3 4 5
comments
print report bad tab
2 comments total.
+1 reply
NickTheCanadian 10 wrote on February 20 2011, 01:28 pm

It isn't the 10th fret it is the 8th.

0 reply
OMYGO$HIT$JOSH 201 wrote on February 20 2011, 01:50 pm

OOOP! Sorryyy Messed Up In Writing The Tab.. :P

guest
You may want to rate the tab now too:
select rating
Wanna post a correction for this tab? Suggest correction