Oops, an error
Loading. Please wait.

Take One Last Breath Bass Tab

version 1
version 1

Whole song

Interactive

4,922 views 1 this week
no commentswrite comment
1 2 3 4 5
accurate
x 5
add to favorites
launch autoscroll
font size
0
reset
guitar tuner
Tab Pro tools
  • play this tab
  • loop segment
  • change instrument
  • show fretboard
  • metronome
×
Best way to learn
"Take One Last Breath"
Autoscroll
slow
fast
+/-
esc
set tempo
stop
Contributor
Tuning
D A D G B E
-------------------------------------------------------------------------------
			                              TAKE ONE LAST BREATH
                             - Abandon All Ships
-------------------------------------------------------------------------------

Tabbed By :tomgodfrey


Tuning:Drop D



0:13 - 0:55 (x3)
G|---------------------------------------------------------------------------|
D|---------------------------------------------------------------------------|
A|--------1~------------3~---------------------------------------------------|
D|-0~------------3~----------------------------------------------------------|

0:55 - 1:09
G|---------------------------------------------------------------------------|
D|---------------------------------------------------------------------------|
A|---------------------------------------------------------------------------|
D|-0~~~~~~-------------------------------------------------------------------|

1:09 - 1:36 (X2)
G|------------------------------------------------------------------------------|
D|------------------------------------------------------------------------------|
A|------------------1111111111111111-------------------3~-----------------------|
D|-0000000000000000-------------------3~----------------------------------------|

1:36 - 1:48
G|---------------------------------------------------------------------------|
D|---------------------------------------------------------------------------|
A|---------------1----1-1-1------------------3----3-3-3----------------------|
D|-0----0-0-0------------------3----3-3-3------------------------------------|

1:48 - 2:17
G|---------------------------------------------------------------------------|
D|---------------------------------------------------------------------------|
A|-------1~----------3~---------------------1111111111111111-------3~--------|
E|-0~----------3~----------0000000000000000------------------3~----------10/0|

2:18 - 2:35 (X2)
G|---------------------------------------------------------------------------|
D|---------------------------------------------------------------------------|
A|---------------------------------------------------------------------------|
D|---010-------0-------0-------010-----0\12-12/0-----------------------------|

2:36 - 2:51 (X2)
G|---------------------------------------------------------------------------|
D|---------------------------------------------------------------------------|
A|--------------------------------1------------------------------------------|
D|-010~----00000--00--00---010~-----3---5-0---3------------------------------|

2:52 - 3:07 (0's and 1's, not 10's)
G|---------------------------------------------------------------------------|
D|---------------------------------------------------------------------------|
A|----------------------------1----------------------------------------------|
D|-01010101010101010101010101---3---5-0---3--01010101010101010101010101010101|

3:08 - 3:22
G|-------------------------------------------------------------------------------|
D|-------------------------------------------------------------------------------|
A|------------------111111111111111----------------3~----------------------------|
D|-0000000000000000-----------------3~-------------------------------------------|

3:22 - 3:37
G|---------------------------------------------------------------------------|
D|---------------------------------------------------------------------------|
A|------------------111111111111111------------------333333333333------------|
D|-0000000000000000-----------------3~-------------------------------0-------|


\m/

| /  slide up
| \  slide down
| h  hammer-on
| p  pull-off
| ~  vibrato
| +  harmonic
| x  Mute note
===============================================================================
comments
print report bad tab
I want to post or [tab]
guest
You may want to rate the tab now too:
select rating
Please do not post tabs as comments. Select "correction" instead!