Oops, an error
Loading. Please wait.

Take One Last Breath Tab

version 2
version 2

Whole song

Interactive

558 views 1 this week
no commentswrite comment
1 2 3 4 5
please rate
add to favorites
launch autoscroll
font size
0
reset
how to read this tab
guitar tuner
Tab Pro tools
  • play this tab
  • loop segment
  • change instrument
  • show fretboard
  • metronome
×
Best way to learn
"Take One Last Breath"
Autoscroll
slow
fast
+/-
esc
set tempo
stop
Contributor
Difficulty
Tuning
novice
D A D G B E
-------------------------------------------------------------------------------
                  TAKE ONE LAST BREATH - Abandon All Ships
-------------------------------------------------------------------------------
Tabbed by: Factor13x
Difficulty: Novice

Tuning: Drop D

Intro (0:00-0:13) Awesome Trance Intro

Riff A (0:13-0:27) Let ring for two measures
e|------------------|
B|------------------|
G|------------------|
D|-0~--8~--3~--10~--|
A|-0~--8~--3~--10~--|
D|-0~--8~--3~--10~--|

Riff B (0:27-0:55) Strumming pattern is easy to figure out      *they're 10's
e|------------------------------------------------------------------------------------------|
B|------------------------------------------------------------------------------------------|
G|------------------------------------------------------------------------------------------|
D|-0~--000000-0-0-0-0--8~--888888-8-8-8-8--3~--333333-3-3-3-3--10~--10-10-10-10-10-10-10-10-| x2
A|-0~--000000-0-0-0-0--8~--888888-8-8-8-8--3~--333333-3-3-3-3--10~--10-10-10-10-10-10-10-10-|
D|-0~--000000-0-0-0-0--8~--888888-8-8-8-8--3~--333333-3-3-3-3--10~--10-10-10-10-10-10-10-10-|
       ****** * * * *      ****** * * * *      ****** * * * *

Riff C (0:55-1:08) Trance Interlude, just let the chord ring out
e|-----|
B|-----|
G|-----|
D|-0~--|
A|-0~--|
D|-0~--|

Riff D (1:08-1:36) Strumming pattern is easy to figure out
e|------------------------------------------------------------------|
B|------------------------------------------------------------------|
G|------------------------------------------------------------------|
D|-0-------8-------3~--333333-3-3-3-3--10~--10-10-10-10-10-10-10-10-| x2
A|-0-(x16)-8-(x16)-3~--333333-3-3-3-3--10~--10-10-10-10-10-10-10-10-|
D|-0-------8-------3~--333333-3-3-3-3--10~--10-10-10-10-10-10-10-10-|
                       ****** * * * *

Riff E (1:36-1:49) Again, easy strumming pattern
e|--------------------------------------------------------------------------------|
B|--------------------------------------------------------------------------------|
G|--------------------------------------------------------------------------------|
D|-0------0-0-0--------10~--8------8-8-8------3------3-3-3------10------10-10-10\-|
A|-0------0-0-0--------10~--8------8-8-8------3------3-3-3------10------10-10-10\-|
D|-0------0-0-0--------10~--8------8-8-8------3------3-3-3------10------10-10-10\-|

(1:49-2:03) Repeat Riff B x1

(2:03-2:18) Repeat Riff D x1

Riff F (2:18-2:36) Breakdown, they mix between left and right channels
e|---------------------------------5nh~-|    |----------------|
B|---------------------------------5nh~-|    |--------13------|
G|---------------------------------5nh~-|    |-9-10-9----10-9-|
D|-0-1-0------00-00--00-00--0-1-0--5nh~-| x2 |----------------| Tag on after 2nd time through
A|-0-1-0------00-00--00-00--0-1-0-------|    |----------------|
D|-0-1-0------00-00--00-00--0-1-0-------|    |----------------|
   * * *      ** **  ** **  * * *

Riff G (2:36-2:52) Breakdown continued
e|-----------------------------------------------------|
B|-----------------------------------------------------|
G|-----------------------------------------------------|
D|-0-1-0------00000-000-000--0-1-0---------------------| x2
A|-0-1-0------00000-000-000--0-1-0-------3-------------|
D|-0-1-0------00000-000-000--0-1-0---------4-3-1-0-4ph-|

Riff H (2:52-3:08)
e|--------------------------------|
B|--------------------------------|
G|--------------------------------|
D|-0--------------------0-------0-|
A|-0-(x24)-3------------0-(x32)-0-|
D|-1--------4-3-1-0-4ph-1-------0-|
   *                    *

(3:08-3:36) Repeat riff D x2

(3:36)
e|-----|
B|-----|
G|-----|
D|--0--|
A|--0--|
D|--0--|
comments
We did not receive enough feedback on this tab! Please rate:
print report bad tab
1 2 3 4 5
I want to post or [tab]
guest
You may want to rate the tab now too:
select rating
Please do not post tabs as comments. Select "correction" instead!