Oops, an error
Loading. Please wait.

Mercy Kiss tab

version 2
version 2

Whole song

41 views 1 this week
no commentswrite comment
1 2 3 4 5
3 more votes to show rating
add to favorites
×
Save as Personal and add changes to this tab that will be seen only by you. Learn more ›
×
You can save this tab as Personal to edit and correct it or add notes. All changes will be seen only by you. Learn more »
launch autoscroll
font size
0
reset
how to read this tab
guitar tuner
edit
Autoscroll
slow
fast
+/-
esc
set tempo
stop
Abandoned Pools
"Mercy Kiss"

[Intro]

Fade in alternating a low G# and a low F# (keyboard or a sample), then...


E|------------------------|------------------------|------------------------|------------------------|
B|------------------------|------------------------|------------------------|------------------------|
G|13----13-------------13-|---13-13----------------|13--13---------------8--|---8--8-----------------|
D|------------0--2--0-----|------------0--2--0-----|------------0--2--0-----|------------0--2--0-----|
A|11----11----0--2--0--11-|---11-11----0--2--0-----|11--11------0--2--0--6--|---6--6-----0--2--0-----|
D|------------0--2--0-----|------------0--2--0-----|------------0--2--0-----|------------0--2--0-----|
 |
E|------------------------|------------------------|------------------------|------------------------|
B|------------------------|------------------------|------------------------|------------------------|
G|------------------------|------------------------|------------------------|------------------------|
D|------------------------|------------------------|------------------------|------------0--2--0-----|
A|------------------------|------------------------|------------------------|------------0--2--0-----|
D|------------------------|------------------------|------------------------|------------0--2--0-----|


E|------------------------|------------------------|------------------------|------------------------|
B|------------------------|------------------------|------------------------|------------------------|
G|13----13-------------13-|---13-13----------------|13--13---------------8--|---8--8-----------------|
D|------------0--2--0-----|------------0--2--0-----|------------0--2--0-----|------------0--2--0-----|
A|11----11----0--2--0--11-|---11-11----0--2--0-----|11--11------0--2--0--6--|---6--6-----0--2--0-----|
D|------------0--2--0-----|------------0--2--0-----|------------0--2--0-----|------------0--2--0-----|
 |
E|------------------------|------------------------|------------------------|------------------------|
B|------------------------|------------------------|------------------------|------------------------|
G|13----13-------------13-|---13-13----------------|13--13---------------8--|---8--8-----------------|
D|------------0--2--0-----|------------0--2--0-----|------------0--2--0-----|------------0--2--0-----|
A|11----11----0--2--0--11-|---11-11----0--2--0-----|11--11------0--2--0--6--|---6--6-----0--2--0-----|
D|------------0--2--0-----|------------0--2--0-----|------------0--2--0-----|------------0--2--0-----|


[Verse]

  Rest             Rest             Rest             Rest             
E|----------------|----------------|----------------|----------------|
B|----------------|----------------|----------------|----------------|
G|----------------|----------------|----------------|----------------|
D|----------------|----------------|----------------|----------------|
A|----------------|----------------|----------------|----------------|
D|----------------|----------------|----------------|----------------|
 |PM               PM               PM               PM
E|----------------|----------------|----------------|----------------|
B|----------------|----------------|----------------|----------------|
G|----------------|----------------|----------------|----------------|
D|----------------|----------------|----------------|----------------|
A|2-2-2-2-2-2-2-2-|2-2-2-2-2-2-2-2-|7-7-7-7-7-7-7-7-|7-7-7-7-7-7-7-7-|
D|2-2-2-2-2-2-2-2-|2-2-2-2-2-2-2-2-|7-7-7-7-7-7-7-7-|7-7-7-7-7-7-7-7-|

  Rest             Rest             Rest             Rest             
E|----------------|----------------|----------------|----------------|
B|----------------|----------------|----------------|----------------|
G|----------------|----------------|----------------|----------------|
D|----------------|----------------|----------------|----------------|
A|----------------|----------------|----------------|----------------|
D|----------------|----------------|----------------|----------------|
 |PM               PM               PM               PM      UM
E|----------------|----------------|----------------|----------------|
B|----------------|----------------|----------------|----------------|
G|----------------|----------------|----------------|----------------|
D|----------------|----------------|----------------|----------------|
A|4-4-4-4-4-4-4-4-|4-4-4-4-4-4-4-4-|2-2-2-2-2-2-2-2-|2-2-2-2-0-2-0---|
D|4-4-4-4-4-4-4-4-|4-4-4-4-4-4-4-4-|2-2-2-2-2-2-2-2-|2-2-2-2-0-2-0---|

  PM               PM               PM               PM
E|----------------|----------------|----------------|----------------|
B|----------------|----------------|----------------|----------------|
G|----------------|----------------|1-1-1-1-1-1-1-1-|1-1-1-1-1-1-1-1-|
D|----------------|----------------|2-2-2-2-2-2-2-2-|2-2-2-2-2-2-2-2-|
A|2-2-2-2-2-2-2-2-|2-2-2-2-2-2-2-2-|0-0-0-0-0-0-0-0-|0-0-0-0-0-0-0-0-|
D|2-2-2-2-2-2-2-2-|2-2-2-2-2-2-2-2-|----------------|----------------|
 |PM               PM               PM               PM
E|----------------|----------------|----------------|----------------|
B|----------------|----------------|----------------|----------------|
G|----------------|----------------|----------------|----------------|
D|----------------|----------------|----------------|----------------|
A|2-2-2-2-2-2-2-2-|2-2-2-2-2-2-2-2-|7-7-7-7-7-7-7-7-|7-7-7-7-7-7-7-7-|
D|2-2-2-2-2-2-2-2-|2-2-2-2-2-2-2-2-|7-7-7-7-7-7-7-7-|7-7-7-7-7-7-7-7-|

  PM               PM               PM               PM
E|----------------|----------------|----------------|----------------|
B|----------------|----------------|----------------|----------------|
G|----------------|----------------|----------------|----------------|
D|----------------|----------------|----------------|----------------|
A|4-4-4-4-4-4-4-4-|4-4-4-4-4-4-4-4-|2-2-2-2-0-2-0-2-|2-2-2-2-0-2-0---|
D|4-4-4-4-4-4-4-4-|4-4-4-4-4-4-4-4-|2-2-2-2-0-2-0-2-|2-2-2-2-0-2-0---|
 |PM               PM               PM               PM
E|----------------|----------------|----------------|----------------|
B|----------------|----------------|----------------|----------------|
G|----------------|----------------|----------------|----------------|
D|----------------|----------------|----------------|----------------|
A|4-4-4-4-4-4-4-4-|4-4-4-4-4-4-4-4-|2-2-2-2-2-2-2-2-|2-2-2-2-2-2-2-2-|
D|4-4-4-4-4-4-4-4-|4-4-4-4-4-4-4-4-|2-2-2-2-2-2-2-2-|2-2-2-2-2-2-2-2-|

  PM               PM               PM               PM      UM
E|----------------|----------------|----------------|----------------|
B|----------------|----------------|----------------|----------------|
G|----------------|----------------|1-1-1-1-1-1-1-1-|1-1-1-1---------|
D|----------------|----------------|2-2-2-2-2-2-2-2-|2-2-2-2---------|
A|4-4-4-4-4-4-4-4-|4-4-4-4-4-4-4-4-|0-0-0-0-0-0-0-0-|0-0-0-0-0-2-0---|
D|4-4-4-4-4-4-4-4-|4-4-4-4-4-4-4-4-|----------------|--------0-2-0---|
 |PM               PM               PM               PM      UM
E|----------------|----------------|----------------|----------------|
B|----------------|----------------|----------------|----------------|
G|----------------|----------------|----------------|----------------|
D|----------------|----------------|----------------|----------------|
A|4-4-4-4-4-4-4-4-|4-4-4-4-4-4-4-4-|7-7-7-7-7-7-7-7-|7-7-7-7-0-2-0---|
D|4-4-4-4-4-4-4-4-|4-4-4-4-4-4-4-4-|7-7-7-7-7-7-7-7-|7-7-7-7-0-2-0---|


[Chorus]

E|------------------------|------------------------|------------------------|------------------------|
B|------------------------|------------------------|------------------------|------------------------|
G|13----13-------------13-|---13-13----------------|13--13---------------8--|---8--8-----------------|
D|------------0--2--0-----|------------0--2--0-----|------------0--2--0-----|------------0--2--0-----|
A|11----11----0--2--0--11-|---11-11----0--2--0-----|11--11------0--2--0--6--|---6--6-----0--2--0-----|
D|------------0--2--0-----|------------0--2--0-----|------------0--2--0-----|------------0--2--0-----|
 |                                                                                                    X2
E|------------------------|------------------------|------------------------|------------------------|
B|------------------------|------------------------|------------------------|------------------------|
G|13----13-------------13-|---13-13----------------|13--13---------------8--|---8--8-----------------|
D|------------0--2--0-----|------------0--2--0-----|------------0--2--0-----|------------0--2--0-----|
A|11----11----0--2--0--11-|---11-11----0--2--0-----|11--11------0--2--0--6--|---6--6-----0--2--0-----|
D|------------0--2--0-----|------------0--2--0-----|------------0--2--0-----|------------0--2--0-----|


E|----------------|----------------|
B|----------------|----------------|
G|----------------|----------------|
D|5-0---1---2--/5-|5-0---1---2--/5-|
A|5-0---1---2--/5-|5-0---1---2--/5-|
D|5-0---1---2--/5-|5-0---1---2--/5-|
 |
E|----------------|----------------|
B|----------------|----------------|
G|----------------|----------------|
D|5-0---1---2--/5-|5-0---1---2--/5-|
A|5-0---1---2--/5-|5-0---1---2--/5-|
D|5-0---1---2--/5-|5-0---1---2--/5-|


[Verse]

  PM               PM               PM               PM
E|----------------|----------------|----------------|----------------|
B|----------------|----------------|----------------|----------------|
G|----------------|----------------|1-1-1-1-1-1-1-1-|1-1-1-1-1-1-1-1-|
D|----------------|----------------|2-2-2-2-2-2-2-2-|2-2-2-2-2-2-2-2-|
A|2-2-2-2-2-2-2-2-|2-2-2-2-2-2-2-2-|0-0-0-0-0-0-0-0-|0-0-0-0-0-0-0-0-|
D|2-2-2-2-2-2-2-2-|2-2-2-2-2-2-2-2-|----------------|----------------|
 |PM               PM               PM               PM
E|----------------|----------------|----------------|----------------|
B|----------------|----------------|----------------|----------------|
G|----------------|----------------|----------------|----------------|
D|----------------|----------------|----------------|----------------|
A|2-2-2-2-2-2-2-2-|2-2-2-2-2-2-2-2-|7-7-7-7-7-7-7-7-|7-7-7-7-7-7-7-7-|
D|2-2-2-2-2-2-2-2-|2-2-2-2-2-2-2-2-|7-7-7-7-7-7-7-7-|7-7-7-7-7-7-7-7-|

  PM               PM               PM               PM
E|----------------|----------------|----------------|----------------|
B|----------------|----------------|----------------|----------------|
G|----------------|----------------|----------------|----------------|
D|----------------|----------------|----------------|----------------|
A|4-4-4-4-4-4-4-4-|4-4-4-4-4-4-4-4-|2-2-2-2-0-2-0-2-|2-2-2-2-0-2-0---|
D|4-4-4-4-4-4-4-4-|4-4-4-4-4-4-4-4-|2-2-2-2-0-2-0-2-|2-2-2-2-0-2-0---|
 |PM               PM               PM               PM
E|----------------|----------------|----------------|----------------|
B|----------------|----------------|----------------|----------------|
G|----------------|----------------|----------------|----------------|
D|----------------|----------------|----------------|----------------|
A|4-4-4-4-4-4-4-4-|4-4-4-4-4-4-4-4-|2-2-2-2-2-2-2-2-|2-2-2-2-0-2-0---|
D|4-4-4-4-4-4-4-4-|4-4-4-4-4-4-4-4-|2-2-2-2-2-2-2-2-|2-2-2-2-0-2-0---|


E|----------------|----------------|----------------|----------------|
B|----------------|----------------|----0-------0---|----0-------0---|
G|----------------|----------------|--1---1---1---1-|--1---1---1---1-|
D|----------------|----------------|2-------2-------|2-------2-------|
A|2-2-2-2-2-2-2-2-|2-2-2-2-2-2-2-2-|----------------|----------------|
D|2-2-2-2-2-2-2-2-|2-2-2-2-2-2-2-2-|----------------|----------------|
 |PM               PM               PM               PM
E|----------------|----------------|----------------|----------------|
B|----------------|----------------|----------------|----------------|
G|----------------|----------------|----------------|----------------|
D|----------------|----------------|----------------|----------------|
A|2-2-2-2-2-2-2-2-|2-2-2-2-2-2-2-2-|7-7-7-7-7-7-7-7-|7-7-7-7-7-7-7-7-|
D|2-2-2-2-2-2-2-2-|2-2-2-2-2-2-2-2-|7-7-7-7-7-7-7-7-|7-7-7-7-7-7-7-7-|


E|----------------|----------------|----------------|----------------|
B|----0-------0---|----0-------0---|----0-------0---|----0-------0---|
G|--1---1---1---1-|--1---1---1---1-|--1---1---1---1-|--1---1---1---1-|
D|2-------2-------|2-------2-------|2-------2-------|2-------2-------|
A|----------------|----------------|----------------|----------------|
D|----------------|----------------|----------------|----------------|
 |PM               PM               PM               PM      UM
E|----------------|----------------|----------------|----------------|
B|----------------|----------------|----------------|----------------|
G|----------------|----------------|----------------|----------------|
D|----------------|----------------|----------------|----------------|
A|4-4-4-4-4-4-4-4-|4-4-4-4-4-4-4-4-|2-2-2-2-2-2-2-2-|2-2-2-2-0-2-0---|
D|4-4-4-4-4-4-4-4-|4-4-4-4-4-4-4-4-|2-2-2-2-2-2-2-2-|2-2-2-2-0-2-0---|

 
E|----------------|----------------|----------------|----------------|
B|----0-------0---|----0-------0---|----------------|----------------|
G|--1---1---1---1-|--1---1---1---1-|1-1-1-1-1-1-1-1-|1-1-1-1---------|
D|2-------2-------|2-------2-------|2-2-2-2-2-2-2-2-|2-2-2-2---------|
A|----------------|----------------|0-0-0-0-0-0-0-0-|0-0-0-0-0-2-0---|
D|----------------|----------------|----------------|--------0-2-0---|
 |PM               PM               PM               PM      UM
E|----------------|----------------|----------------|----------------|
B|----------------|----------------|----------------|----------------|
G|----------------|----------------|----------------|----------------|
D|----------------|----------------|----------------|----------------|
A|4-4-4-4-4-4-4-4-|4-4-4-4-4-4-4-4-|7-7-7-7-7-7-7-7-|7-7-7-7-0-2-0---|
D|4-4-4-4-4-4-4-4-|4-4-4-4-4-4-4-4-|7-7-7-7-7-7-7-7-|7-7-7-7-0-2-0---|


[Chorus]

E|------------------------|------------------------|------------------------|------------------------|
B|------------------------|------------------------|------------------------|------------------------|
G|13----13-------------13-|---13-13----------------|13--13---------------8--|---8--8-----------------|
D|------------0--2--0-----|------------0--2--0-----|------------0--2--0-----|------------0--2--0-----|
A|11----11----0--2--0--11-|---11-11----0--2--0-----|11--11------0--2--0--6--|---6--6-----0--2--0-----|
D|------------0--2--0-----|------------0--2--0-----|------------0--2--0-----|------------0--2--0-----|
 |                                                                                                    X2
E|------------------------|------------------------|------------------------|------------------------|
B|------------------------|------------------------|------------------------|------------------------|
G|13----13-------------13-|---13-13----------------|13--13---------------8--|---8--8-----------------|
D|------------0--2--0-----|------------0--2--0-----|------------0--2--0-----|------------0--2--0-----|
A|11----11----0--2--0--11-|---11-11----0--2--0-----|11--11------0--2--0--6--|---6--6-----0--2--0-----|
D|------------0--2--0-----|------------0--2--0-----|------------0--2--0-----|------------0--2--0-----|


[Bridge]

E|----------------|----------------|----------------|----------------|
B|----------------|----------------|----------------|----------------|
G|----------------|----------------|----------------|----------------|
D|5-0---1---2--/5-|5-0---1---2--/5-|5-0---1---2--/5-|5-0---1---2--/5-|
A|5-0---1---2--/5-|5-0---1---2--/5-|5-0---1---2--/5-|5-0---1---2--/5-|
D|5-0---1---2--/5-|5-0---1---2--/5-|5-0---1---2--/5-|5-0---1---2--/5-|
 |
E|----------------|----------------|----------------|----------------|
B|----------------|----------------|----------------|----------------|
G|----------------|----------------|----------------|----------------|
D|5-0---1---2--/5-|5-0---1---2--/5-|5-0---1---2--/5-|5-0---1---2--/5-|
A|5-0---1---2--/5-|5-0---1---2--/5-|5-0---1---2--/5-|5-0---1---2--/5-|
D|5-0---1---2--/5-|5-0---1---2--/5-|5-0---1---2--/5-|5-0---1---2--/5-|


E|------------------------|------------------------|------------------------|------------------------|
B|------------------------|------------------------|------------------------|------------------------|
G|8--8--8--8--8--8--8--8--|7--7--7--7--7--7--7--7--|12-12-12-12-12-12-12-12-|11--11--11--11--11--11--|
D|------------------------|------------------------|------------------------|------------------------|
A|6--6--6--6--6--6--6--6--|5--5--5--5--5--5--5--5--|10-10-10-10-10-10-10-10-|9--9--9--9--9--9--9--9--|
D|------------------------|------------------------|------------------------|------------------------|
 |
E|------------------------|------------------------|------------------------|------------------------|
B|------------------------|------------------------|------------------------|------------------------|
G|------------------------|------------------------|------------------------|------------------------|
D|5--0-----1-----2----/5--|5--0-----1-----2----/5--|5--0-----1-----2----/5--|5--0-----1-----2----/5--|
A|5--0-----1-----2----/5--|5--0-----1-----2----/5--|5--0-----1-----2----/5--|5--0-----1-----2----/5--|
D|5--0-----1-----2----/5--|5--0-----1-----2----/5--|5--0-----1-----2----/5--|5--0-----1-----2----/5--|
 
  Rest             Rest
E|----------------|----------------|
B|----------------|----------------|
G|----------------|----------------|
D|----------------|----------------|
A|----------------|----------------|
D|----------------|----------------|
 |Rest             Rest
E|----------------|----------------|
B|----------------|----------------|
G|----------------|----------------|
D|----------------|----------------|
A|----------------|----------------|
D|----------------|----------------|


[Chorus]

E|------------------------|------------------------|------------------------|------------------------|
B|------------------------|------------------------|------------------------|------------------------|
G|13----13-------------13-|---13-13----------------|13--13---------------8--|---8--8-----------------|
D|------------0--2--0-----|------------0--2--0-----|------------0--2--0-----|------------0--2--0-----|
A|11----11----0--2--0--11-|---11-11----0--2--0-----|11--11------0--2--0--6--|---6--6-----0--2--0-----|
D|------------0--2--0-----|------------0--2--0-----|------------0--2--0-----|------------0--2--0-----|
 |                                                                                                    X2
E|------------------------|------------------------|------------------------|------------------------|
B|------------------------|------------------------|------------------------|------------------------|
G|13----13-------------13-|---13-13----------------|13--13---------------8--|---8--8-----------------|
D|------------0--2--0-----|------------0--2--0-----|------------0--2--0-----|------------0--2--0-----|
A|11----11----0--2--0--11-|---11-11----0--2--0-----|11--11------0--2--0--6--|---6--6-----0--2--0-----|
D|------------0--2--0-----|------------0--2--0-----|------------0--2--0-----|------------0--2--0-----|


E|------------------------|------------------------|------------------------|------------------------|
B|------------------------|------------------------|------------------------|------------------------|
G|------------------------|------------------------|------------------------|------------------------|
D|6-----6-----0--2--0--6--|---6--6-----0--2--0-----|6---6-------0--2--0--1--|---1--1-----0--2--0-----|
A|------------0--2--0-----|------------0--2--0-----|------------0--2--0-----|------------0--2--0-----|
D|6-----6-----0--2--0--6--|---6--6-----0--2--0-----|6---6-------0--2--0--1--|---1--1-----0--2--0-----|
 |                                                                                                    X2
E|------------------------|------------------------|------------------------|------------------------|
B|------------------------|------------------------|------------------------|------------------------|
G|13----13-------------13-|---13-13----------------|13--13---------------8--|---8--8-----------------|
D|------------0--2--0-----|------------0--2--0-----|------------0--2--0-----|------------0--2--0-----|
A|11----11----0--2--0--11-|---11-11----0--2--0-----|11--11------0--2--0--6--|---6--6-----0--2--0-----|
D|------------0--2--0-----|------------0--2--0-----|------------0--2--0-----|------------0--2--0-----|


[End]

E|----------------|----------------|
B|----------------|----------------|
G|----------------|----------------|
D|6---------------|2---------------|
A|6---------------|2---------------|
D|6---------------|2---------------|
 |
E|----------------|----------------|
B|----------------|----------------|
G|----------------|----------------|
D|6---------------|2---------------|
A|6---------------|2---------------|
D|6---------------|2---------------|



***********************************
| /   Slide up
| PM  Palm mute
| UM  Un-mute
***********************************

            
            
Suggest correction
Creating personal tab
Creating personal tab
You can edit any tab online and save it as your Personal.

You can edit, replace or remove any tab part or add personal notes – all changes will be seen only by you.

Personal tabs can be accessed anytime from any device, even offline.
Learn more »
Give kudos to tab author, rate the tab!
1 2 3 4 5
comments
print report bad tab
guest
You may want to rate the tab now too:
select rating
Wanna post a correction for this tab? Suggest correction