Oops, an error
Loading. Please wait.

Start Over chords

version 2
version 2

Whole song

  • Includes keyboard and string intro arranged for guitar.
19 views 1 this week
no commentswrite comment
1 2 3 4 5
3 more votes to show rating
add to favorites
×
Save as Personal and add changes to this tab that will be seen only by you. Learn more ›
×
You can save this tab as Personal to edit and correct it or add notes. All changes will be seen only by you. Learn more »
launch autoscroll
font size
0
reset
transpose
0
reset
simplify chords
display chords
guitar tuner
edit
Autoscroll
slow
fast
+/-
esc
set tempo
stop
About this tab version
Includes keyboard and string intro arranged for guitar. Was this info helpful? Yes No
Strumming
There is no strumming pattern for this song yet. and get +5 IQ
Abandoned Pools
"Start Over"

Standard tuning. Capo 2nd fret.

 Cadd9 A7sus4 G    Em7   Dadd4/F# D5
e|3-----3-----3-----3-----3-----------|
B|3-----3-----3-----3-----3-------3---|
G|0-----0-----0-----0-----2-------2---|
D|2-----2-----0-----2-----0-------0---|
A|3-----0-----2-----2-----------------|
E|------------3-----0-----2-----------|


[Intro]
  keyboards
e|----------------|----------------|----------------|----------------|----------------|
B|----------------|----------------|----------------|----------------|----------------|
G|----------------|--7+7+--7+7+--7+|--7+7+--7+7+--7+|----------------|----------------|
D|----------------|----------------|----------------|----------------|----------------|
A|----------------|0---------------|3---------------|0---------------|3---------------|
E|10--------------|--------3-------|----------------|--------3-------|----------------|

  Keyboards
e|----------------|----------------|----------------|----------------|
B|----------------|----------------|----------------|----------------|
G|----------------|----------------|----------------|----------------|
D|----------------|----------------|----------------|----------------|
A|0---------------|3---------------|0---------------|3---------------|
E|--------3-------|----------------|--------3-------|----------------|
 |Strings
e|----------------|----------------|----------------|----------------|
B|----------------|----------------|----------------|----------------|
G|--7-7---7-7---7-|--7-7---7-7---7-|--7-7---7-7---7-|--7-7---7-7---7-|
D|--5-5---5-5---5-|--5-5---5-5---5-|--5-5---5-5---5-|--5-5---5-5---5-| x2
A|----------------|----------------|----------------|----------------|
E|----------------|----------------|----------------|----------------|
 |A7sus4  G        Cadd9            A7sus4  G        Cadd9
E|----3-------3---|----3-------3---|----3-------3---|----3-------3---|
B|------3-------3-|------3-------3-|------3-------3-|------3-------3-|
G|----------------|----------------|----------------|----------------|
D|--2-------------|--2-------------|--2-------------|--2-------------|
A|0---------2-----|3---------3-----|0---------2-----|3---------3-----|
E|--------3-------|----------------|--------3-------|----------------|


[Verse]
A7sus4         G                    Cadd9
What a mess our lives turned out to be
       A7sus4          G                    Cadd9
It was at its best when you and I were only three
       A7sus4            G                    Cadd9
We can start with all the things that turn us out
           A7sus4            G                   Cadd9
And we can go right down the list and throw them out


[Chorus]
       A7sus4   G      Cadd9
Can we start, start over?
       A7sus4   G      Cadd9
Can we start, start over?
         A7sus4 G Cadd9
It's over
          A7sus4 G Cadd9
(It's over)


[Verse]
A7sus4           G                       Cadd9
Here you are and there's where you wanna be
A7sus4                 G              Cadd9
   But don't think you don't have company
         A7sus4          G            Cadd9
Think of all the lonely people in the world
            A7sus4          G              Cadd9
And if it's God who made us why we so damn cruel


[Chorus]
       A7sus4   G      Cadd9
Can we start, start over?
       A7sus4   G      Cadd9
Can we start, start over?
         A7sus4 G Cadd9
It's over
          A7sus4 G Cadd9
(It's over)


[Bridge]
Em7    Dadd4/F#  A7sus4
We can never     lie
            Em7   Dadd4/F#  A7sus4
And you can never steal the time
            Em7   Dadd4/F#  A7sus4
And we can only watch them die
            Em7   Dadd4/F#  A7sus4
And we can never find out  why

D5

[Chorus]
       A7sus4            G                    Cadd9
We can start with all the things that turn us out
           A7sus4            G                   Cadd9
And we can go right down the list and throw them out
       A7sus4   G      Cadd9
Can we start, start over?
       A7sus4   G      Cadd9
Can we start, start over?
       A7sus4   G      Cadd9
Can we start, start over?
       A7sus4   G      Cadd9
Can we start, start over?


[Outro]
        Em7   Dadd4/F#  A7sus4
It's over
        Em7   Dadd4/F#  A7sus4
It's over
         Em7   Dadd4/F#  A7sus4
(It's over)
         Em7   Dadd4/F#  A7sus4
(It's over)

  Cadd9
E|-----3-------3---|----3-------3---|-----3-------3---|----3-------3---|
B|-------3-------3-|------3-------3-|-------3-------3-|------3-------3-|
G|-----------------|----------------|-----------------|----------------|
D|-----------------|----------------|-----------------|----------------| x2
A|---3-------3-----|--3-------3-----|---3-------3-----|--3-------3-----|
E|-----------------|----------------|-----------------|----------------|

            
            
Suggest correction
Creating personal tab
Creating personal tab
You can edit any tab online and save it as your Personal.

You can edit, replace or remove any tab part or add personal notes – all changes will be seen only by you.

Personal tabs can be accessed anytime from any device, even offline.
Learn more »
Give kudos to tab author, rate the tab!
1 2 3 4 5
comments
print report bad tab
guest
You may want to rate the tab now too:
select rating
Wanna post a correction for this tab? Suggest correction