Oops, an error
Loading. Please wait.

Dancing Queen Bass Tab

version 1
version 1

Whole song

Interactive

by ABBA
35,370 views 84 this week
2 commentsread comments
1 2 3 4 5
x 6
add to favorites
launch autoscroll
font size
0
reset
guitar tuner
Autoscroll
slow
fast
+/-
esc
set tempo
stop
Help us to improve Ultimate-Guitar.com Take our survey!
×
Author
Artist: ABBA
Title: Dancing Queen
Album: Arrival

[Intro/Verse:]
G:-----------------------|
D:-----7/9---------------|
A:77777---7777545--------|
E:-----------------------|

[Pre Chorus:](~0:17)
G:---------------|
D:---------------|
A:7-7-7-7654-----|
E:---------------|
                     This started when she says "Having the time of your life.."
[Chorus:](~0:21)       \/
G:--------------------------------------------------|
D:-----99-87-----7789-99999777777-------------------|
A:7-777-----9-99-----------------7-7766-555-55-6677-|
E:--------------------------------------------------|

Then to Intro/Verse once:(~0:34)
G:-----------------------|
D:-----7/9---------------|
A:77777---7777545--------|
E:-----------------------|

Then to this piece before the Verse:(x2)(~0:39)
G:---------|
D:-----789-|
A:77777----|
E:---------|
Then to Intro/Verse:(~0:44)(slight change in first part,be aware)
G:-----------------------|
D:-----789---------------|
A:77777---7777545--------|
E:-----------------------|
Then to this piece:(~0:52)
G:-----------|
D:-----9878--|
A:9-999------|
E:-----------|
Then to this(during the piano,x2):(~0:54)
G:-----------789-|
D:-------7-89----|
A:7-77-77--------|
E:---------------|

Then to this:(~1:00)
G:--------------|
D:999-----------|
A:---777676-777-|
E:--------------|
                                          that's a 10
[Intro/Verse:](~1:02)                      \/
G:--------------------------------------910---------------------|
D:-----789------------789-999--878----79------------------------|
A:77777---7777545-7777------------7-77-----77-7-99-89--777--777-|
E:--------------------------------------------------------------|

Then to Pre Chorus build:(~1:22)
G:---------------|
D:---------------|
A:777-676-556677-|
E:---------------|
                     *Play this after she says "The beat of the tambourine.."
Then to Intro/Verse:(~1:27)
G:---------------------------------|
D:-----7/9-------------------------|
A:77777---7777545------*7~--5~--4~-|
E:---------------------------------|

Start this part as she says "You can dance.."(~1:46)
G:-------------------------|
D:-----7-10-109------97789-|
A:7-777--------9-999-------|
E:-------------------------|

Then this part as she says "Having the time.."(~1:51)
G:--------------------------|
D:99999-7777----------------|
A:----------777-776655-6677-|
E:--------------------------|

Then the Intro/Verse:(~2:00)
G:-----------------------|
D:-----789---------------|
A:77777---7777545--------|
E:-----------------------|

Then to the interlude(x2):(~2:11)
G:--------|
D:----7/9-|
A:7-------|
E:--------|

Then back to Intro/Verse:(~2:15)
G:-----------------------|
D:-----7/9---------------|
A:77777---7777545--------|
E:-----------------------|

Then to this(x2)
G:--------------------|
D:----989------99989--|
A:9-99----77767-------|
E:--------------------|

Then to Pre Chorus build:(~2:34)
G:---------------|
D:---------------|
A:777-676-556677-|
E:---------------|

Then back to the Intro/Verse once again for the Chorus:(~2:39)
G:------------------------------|
D:-----7/9----------------------|
A:77777---7777545----7~--5~--4~-|
E:------------------------------|

Start this part as she says "You can dance.."(~2:58)
G:------------------------|
D:-----7-10-109-----97789-|
A:7-777-------9-999-------|
E:------------------------|

Then this part as she says "Having the time.."(changes made here,take notice)(~3:02)
G:--------------------------|
D:99999---------------------|
A:-----99-77676-776655-6677-|
E:--------------------------|

Then repeat the Intro/Verse until exit:(~3:12)
G:-----------------------|
D:-----7/9---------------|
A:77777---7777545--------|
E:-----------------------|



************************************

| /  Slide up
| ~  Vibrato
| *  Natural harmonic

************************************
Suggest correction
comments
print report bad tab
2 comments total.
0 reply
RickBass 139 Apr 15, 2015 07:55 AM

The original key signature of this song is in A. Looks like you tabbed it out in E. Why?

0 reply
ninac_123 10 Jul 24, 2016 12:35 AM

THE STANDARD KEY IS A, NOT E

guest
You may want to rate the tab now too:
select rating
Wanna post a correction for this tab? Suggest correction