Oops, an error
Loading. Please wait.
We have an official Dancing Queen tab made by UG professional guitarists. Check out the tab »
×
by ABBA
2,806 views 45 this week
no commentswrite comment
1 2 3 4 5
1 last vote to show rating
add to favorites
×
Save as Personal and add changes to this tab that will be seen only by you. Learn more ›
×
You can save this tab as Personal to edit and correct it or add notes. All changes will be seen only by you. Learn more »
launch autoscroll
font size
0
reset
guitar tuner
edit
Autoscroll
slow
fast
+/-
esc
set tempo
stop
Author
---------------------------------------------------------------------
                             Dancing Queen - ABBA
---------------------------------------------------------------------
Tabbed by: RagnaarMN
Tuning: Standard

1-4 Intro
G|----------------|----------------|----------------|----------------|
D|--------2-------|----------------|--------2-------|----------------|
A|0---------------|0---------------|0---------------|0---0-----------|
E|----------------|--------0---4---|----------------|--------0---4---|
5-8
G|----------------|----------------|----------------|----------------|
D|--------2-------|----------------|----------------|----------------|
A|0---------------|0---------------|0-------0-------|----------------|
E|----------------|--------0---4---|------------4---|2---2---0---4---|

9-12 Chorus
G|----------------|----------------|----------------|----------------|
D|----------------|--------1---2---|4-------4---2---|1-------1---4---|
A|------------2---|4---------------|----------------|----------------|
E|0-------0-------|----------------|----------------|----------------|
  You              you              having           life
13-16
G|----------------|----------------|----------------|----------------|
D|0-------0-------|----------------|--------2-------|----------------|
A|------------4---|2---------------|0-----------0---|0-----------4---|
E|----------------|--------0---2---|----------------|--------0-------|
  see              watch            Dancing         

17-20                                    Verse        
G|----------------|----------------|----------------|----------------|
D|----------------|----------------|----------------|----------------|
A|0-------0---0---|0-------0---0---|0-------0-------|0-------0-------|
E|----------------|----------------|----------------|------------0---|
                                    Friday
21-24
G|----------------|----------------|----------------|----------------|
D|----------------|4-------4-------|--------2-------|--------2-------|
A|0-------0---2---|------------4---|------------0---|------------0---|
E|----------------|----------------|0---------------|0---------------|
  look                              where            get
25-28                      
G|----------------|----------------|----------------|----------------|
D|2---4---2---4---|----------------|----------------|----------------|
A|----------------|----------------|0-------0-------|0---------------|
E|----------------|2-------2---4---|----------------|--------0---4---|
  look                              Any
29-32
G|----------------|----------------|----------------|----------------|
D|------------2---|4-------2-------|--------4---2---|--------2-------|
A|0-------0-------|------------4---|----------------|----------------|
E|----------------|----------------|0---4-----------|0---4-----------|
  Night            high             With             every  
33-36
G|----------------|----------------|----------------|----------------|
D|2---4-------4---|4-------4-------|----------------|----------------|
A|----------------|------------4---|2---------------|----------------|
E|----------------|----------------|--------2-------|0-------0---4---|
  mood                              get
37-40
G|----------------|----------------|----------------|----------------|
D|----------------|----------------|------------2---|----------------|
A|0-------0---2---|0---------------|0-------0-------|0-------0---2---|
E|----------------|--------0---2---|----------------|----------------|
  Dancing          young            seven
41-44
G|----------------|----------------|----------------|----------------|
D|----------------|----------------|----------------|----------------|
A|0-------0-------|0-----------4---|0-------0-------|----------------|
E|----------------|--------0-------|------------4---|2---2---0---0---|
  Dancing          feel             tambourine 

45-48 Chorus
G|----------------|----------------|----------------|----------------|
D|----------------|--------1---2---|4-------4---2---|1-------1---4---|
A|------------2---|4---------------|----------------|----------------|
E|0-------0-------|----------------|----------------|----------------|
  You              you              having           life
49-52
G|----------------|----------------|----------------|----------------|
D|0-------0-------|----------------|--------2-------|----------------|
A|------------4---|2---------------|0-----------0---|0---------------|
E|----------------|--------0---2---|----------------|--------0---2---|
  see              watch            Dancing         
53-56                                            
G|----------------|----------------|----------------|----------------|
D|----------------|----------------|----------------|----------------|
A|0-------0-------|0-------0-------|0-------0-------|0-------0-------|
E|----------------|------------0---|----------------|------------2---|
             
55-58 Verse                      
G|----------------|----------------|
D|----------------|----------------|
A|0-------0-------|0---------------|
E|----------------|--------0---4---|
  You're
59-62
G|----------------|----------------|----------------|----------------|
D|------------2---|4-------2-------|--------4---2---|--------2-------|
A|0-------0-------|------------4---|----------------|----------------|
E|----------------|----------------|0---4-----------|0---4-----------|
  Leave            gone             Looking          anyone     
63-66
G|----------------|----------------|----------------|----------------|
D|2---4-------4---|4-------4-------|----------------|----------------|
A|----------------|------------4---|2---------------|----------------|
E|----------------|----------------|--------2-------|0-------0---4---|
  mood                              get
67-70
G|----------------|----------------|----------------|----------------|
D|----------------|----------------|------------2---|----------------|
A|0-------0-------|0---------------|0-------0-------|0-------0---2---|
E|----------------|--------0---2---|----------------|----------------|
  Dancing          young            seven
71-74
G|----------------|----------------|----------------|----------------|
D|----------------|----------------|----------------|----------------|
A|0-------0-------|0-----------4---|0-------0-------|----------------|
E|----------------|--------0-------|------------4---|2---2---0---0---|
  Dancing          feel             tambourine 

75-78 Chorus:
G|----------------|----------------|----------------|----------------|
D|----------------|--------1---2---|4-------4---2---|1-------1---4---|
A|------------2---|4---------------|----------------|----------------|
E|0-------0-------|----------------|----------------|----------------|
  You              you              having           life
79-82
G|----------------|----------------|----------------|----------------|
D|0-------0-------|----------------|--------2-------|----------------|
A|------------4---|2---------------|0-----------0---|0---------------|
E|----------------|--------0---2---|----------------|--------0---2---|
  see              watch            Dancing         

Keep repeating the below:                                            
G|----------------|----------------|----------------|----------------|
D|----------------|----------------|----------------|----------------|
A|0-------0-------|0---------------|0-------0-------|0---------------|
E|----------------|--------0---0---|----------------|--------0---4---|

This is a simplified version. Credit to Stevie Glasgow who has 
a more complete tab.
           
======================================================================

            
            
Suggest correction
Creating personal tab
Creating personal tab
You can edit any tab online and save it as your Personal.

You can edit, replace or remove any tab part or add personal notes – all changes will be seen only by you.

Personal tabs can be accessed anytime from any device, even offline.
Learn more »
Give kudos to tab author, rate the tab!
1 2 3 4 5
comments
print report bad tab
guest
You may want to rate the tab now too:
select rating
Wanna post a correction for this tab? Suggest correction