Oops, an error
Loading. Please wait.

Does Your Mother Know Tab

version 1
version 1

Whole song

Interactive

by ABBA
32,893 views 90 this week
1 commentread comment
1 2 3 4 5
x 9
add to favorites
launch autoscroll
font size
0
reset
how to read this tab
guitar tuner
×
Best way to learn
"Does Your Mother Know"
Autoscroll
slow
fast
+/-
esc
set tempo
stop
Difficulty
novice
Standard tuning

(Bass riff)
e|---------------------------------------------------------------------------| (2x)
B|---------------------------------------------------------------------------|
G|---------------------------------------------------------------------------|
D|---------------------------------------------------------------------------|
A|---------------------------------------------------------------------------|
E|3-3-3-3-3-3-3-0-1h-3h-3-3-3-3-3-3-0-1h-3h-3-3-3-3-3-3-0-1h-3h-3-3-1-3-1-3-1| 

(Guitar riff)
e|---------------------------------------------------------------------------|
B|12-13-12-12-12-13-12-13-12-(12)-(12)-(12)-(12)-12-13-12-12-12-13-12-13-12--|
G|12-12-12-12-12-12-12-12-12-(12)-(12)-(12)-(12)-12-12-12-12-12-12-12-12-12--|
D|---------12--------------------------(13)-(13)----------12-----------------|
A|---------------------------------------------------------------------------|
E|---------------------------------------------------------------------------|

You're so hot..
e|-----------------------------------------------|
B|-----------------------------------------------|
G|--------------------------4-4-4----------------|
D|--------------------------2-2-2----------------|
A|5-5-5-5-5-5-5-5-5-5-5-5-2----------------------|
E|3-3-3-3-3-3-3-3-3-3-3-3------------------------|

So you're..
e|-----------------------------------------------|
B|-----------------------------------------------|
G|-----------------------------------------------|
D|--------9-9-9-9-7-7-7-7-5-5-5-5-4-4-4-4-2-2----|
A|5-5-5-5-7-7-7-7-5-5-5-5-3-3-3-3-2-2-2-2-0-0----|
E|3-3-3-3----------------------------------------|

e|-----------------------------------------------| 
B|7-8-7-7-7-8-7-8-7---12-13-12-12-12-13-12-13-12-| 
G|7-7-7-7-7-7-7-7-7---12-12-12-12-12-13-12-13-12-|
D|------7----------------------12----------------|
A|-----------------------------------------------|
E|-----------------------------------------------|

e|-----------------------------------------------|
B|7-8-7-7-7-8-7-8-7---12-13-12-12----------------|
G|7-7-7-7-7-7-7-7-7---12-12-12-12----------------|
D|------7----------------------12----------------|
A|------------------------------------0-0-1-1-2-2|
E|--------------------------------3-3------------|

Well, I could
e|---------------| (6x)
B|---------------|
G|---------------|
D|5-5-7-7--------|
A|3-3-3-3--------| 
E|---------------|

e|---------------|
B|---------------|
G|---------------|
D|---------------|
A|----0-0-1-1-2-2|
E|3-3------------|

And I could
e|---------------| (6x)
B|---------------|
G|---------------|
D|5-5-7-7--------|
A|3-3-3-3--------| 
E|---------------|

e|---------------|
B|---------------|
G|---------------|
D|---------------|
A|----0-0-1-1-2-2|
E|3-3------------|

Take it easy.. 

(Bass riff)
e|---------------------------------------------------------------------------|
B|---------------------------------------------------------------------------|
G|---------------------------------------------------------------------------|
D|---------------------------------------------------------------------------|
A|---------------------------------------------------------------------------|
E|3-3-3-3-3-3-3-0-1h-3h-3-3-3-3-3-3-0-1h-3h-3-3-3-3-3-3-0-1h-3h-3-3-1-3-1-3-1|

(Guitar riff)
e|---------------------------------------------------------------------------|
B|12-13-12-12-12-13-12-13-12-(12)-(12)-(12)-(12)-12-13-12-12-12-13-12-13-12--|
G|12-12-12-12-12-12-12-12-12-(12)-(12)-(12)-(12)-12-12-12-12-12-12-12-12-12--|
D|---------12--------------------------(13)-(13)----------12-----------------|
A|---------------------------------------------------------------------------|
E|---------------------------------------------------------------------------|

I can see
e|-----------------------------------------------|
B|-----------------------------------------------|
G|--------------------------4-4-4----------------|
D|--------------------------2-2-2----------------|
A|5-5-5-5-5-5-5-5-5-5-5-5-2----------------------|
E|3-3-3-3-3-3-3-3-3-3-3-3------------------------|

But you seem
e|-----------------------------------------------|
B|-----------------------------------------------|
G|-----------------------------------------------|
D|--------9-9-9-9-7-7-7-7-5-5-5-5-4-4-4-4-2-2----|
A|5-5-5-5-7-7-7-7-5-5-5-5-3-3-3-3-2-2-2-2-0-0----|
E|3-3-3-3----------------------------------------|

e|-----------------------------------------------|
B|7-8-7-7-7-8-7-8-7---12-13-12-12-12-13-12-13-12-| 
G|7-7-7-7-7-7-7-7-7---12-12-12-12-12-13-12-13-12-|
D|------7----------------------12----------------|
A|-----------------------------------------------|
E|-----------------------------------------------|

e|-----------------------------------------------|
B|7-8-7-7-7-8-7-8-7---12-13-12-12----------------|
G|7-7-7-7-7-7-7-7-7---12-12-12-12----------------|
D|------7----------------------12----------------|
A|------------------------------------0-0-1-1-2-2|
E|--------------------------------3-3------------|

Well, I could..
e|---------------| (6x)
B|---------------|
G|---------------|
D|5-5-7-7--------|
A|3-3-3-3--------| 
E|---------------|

e|---------------|
B|---------------|
G|---------------|
D|---------------|
A|----0-0-1-1-2-2|
E|3-3------------|

And I could..
e|---------------| (6x)
B|---------------|
G|---------------|
D|5-5-7-7--------|
A|3-3-3-3--------| 
E|---------------|

e|---------------|
B|---------------|
G|---------------|
D|---------------|
A|----0-0-1-1-2-2|
E|3-3------------|

Take it easy..
e|---------------|
B|---------------|
G|---------------|
D|---------------|
A|----0-0-1-1-2-2|
E|3-3------------|

Finally repeat next lines until the end of the song
e|---------------| (6x)
B|---------------|
G|---------------|
D|5-5-7-7--------|
A|3-3-3-3--------| 
E|---------------|

e|---------------|
B|---------------|
G|---------------|
D|---------------|
A|----0-0-1-1-2-2|
E|3-3------------|


************************************

| h    Hammer-on
| (n)  Ghost note

************************************
Suggest correction
comments
print report bad tab
1 comment total.
0 reply
HazMMusic 45 Aug 12, 2014 02:25 AM

This is amazing! Thank you! :) I just have a question - is there no guitar part during the "take it easy" part?

guest
You may want to rate the tab now too:
select rating
Wanna post a correction for this tab? Suggest correction