Oops, an error
Loading. Please wait.

Happy Hawaii Bass Tab

by ABBA
217 views 3 this week
no commentswrite comment
1 2 3 4 5
please rate
add to favorites
launch autoscroll
font size
0
reset
guitar tuner
Autoscroll
slow
fast
+/-
esc
set tempo
stop
Help us to improve Ultimate-Guitar.com Take our survey!
×
Happy Hawaii ( ABBA )
------------------------------------------------------------------------------
Tabbed by: Mike Kunz
E-mail: rmjk21@embarqmail.com

Tuning: Standard

  intro:
G|---------------------------------------------------------------------------|
D|---------------------------------------------------------------------------|
A|0h-3-3-3-3-3-3-3-3-3-3-3-3-3-3-3-3-3-3-3-3-3-3-3-3-3-3-3-3-3-3-3-3-3-3-3-3-| 2
E|---------------------------------------------------------------------------|
 
 verse:
G|----------------------------------------------------------------------------|
D|----------------------------------------------------------------------------|
A|3-3-3-3-3-3-3-----------3-3-3-3-3-3-3-------------------------------3-3-3-3-|
E|--------------3-3-3-3-3---------------3-3-3-3-3-1-1-1-1-1-3-3-3-3-3---------|
  

G|----------------------------------------------------------------------------|
D|----------------------------------------------------------------------------|
A|3-3-3-3-3-3-3-----------3-3-3-3-3-3-3---------------------------------3-3-3-|
E|--------------3-3-3-3-3---------------3-3-3-3-3-1-1-1-1-1-1-3-3-3-3-3-------|

 chorus: 
G|--------|-----------------------------------------------------------------------|
D|----2-5-|3-2-----5-3-2-------2-5-----2-5-3-2-----5-3-2----------r--2--5-5-5-5-5-|
A|3-5-----|----5-3-------5-3-5-----3-5---------5-3-------5--r--3------------------|
E|--------|-----------------------------------------------------------------------|


 interlude:
G|--------------------------------------------------------------------------|
D|0-5-5-5-5-5-5-5-5-5-5-5---------------3-3-3-3-3-5-5-5-5-5-5---------------|
A|------------------------3-3-3-3-3-3-3-----------------------3-3-3-3-3-3-3-|
E|--------------------------------------------------------------------------|


  outro:
G|--------------------------------------------------------------------------|
D|0-3-3-3-3-3-3-3-3-3-3-3-3-3-3-3-3-3-3-3-3-3-3-3-3-3-3-3-3-3-3-3-3-3-3-3-3-|
A|--------------------------------------------------------------------------|
E|--------------------------------------------------------------------------|


intro play twice
verse
chorus
verse
interlude
verse
chorus
interlude
outro
Suggest correction
Give kudos to tab author, rate the tab!
1 2 3 4 5
comments
print report bad tab
guest
You may want to rate the tab now too:
select rating
Wanna post a correction for this tab? Suggest correction