Oops, an error
Loading. Please wait.

Honey Honey Bass Tab

version 2
version 2

Whole song

Interactive

by ABBA
43 views 6 this week
no commentswrite comment
1 2 3 4 5
2 more votes to show rating
add to favorites
launch autoscroll
font size
0
reset
guitar tuner
Autoscroll
slow
fast
+/-
esc
set tempo
stop
Help us to improve Ultimate-Guitar.com Take our survey!
×
Author
Honey Honey 
Single released by Abba in 1974. Never released in UK but a big
All over the rest of the world. Tab by bass50611
Think it’s more or less as original bass line.

Intro:
G|-------------------------------------------------|
D|-----------------------------0-3---0-3---0-3-----|
A|----0-3---0-3---0-3---0-3-1-----1-----1------1—1-|
E|-1-----1-----1-----1-----------------------------|

Chorus:                                    (Play This x2)
G|---------------------------------------------------|
D|-----------------------------0-3---0-3---0-3---0-3-|
A|----0-3---0-3---0-3---0-3-1-----1-----1-----1------|
E|-1-----1-----1-----1-------------------------------|

Verse 1:
G|--------------------------------------------------------|
D|--------------------------------------------------------|
A|----0-3---0-3---5---3-5---3-----0-3---0-3---5---3-5---3-|
E|-1-----1-----------5----5----1-----1-----------5----5---|

G|------------------------------------------------------|
D|---------------------------------0-3---0-3---0-3------|
A|----0-3---0-3---5---3-5---3---1-----1-----1------1--1-|
E|-1-----1-----------5----5-----------------------------|

Chorus:                                    (Play This x2)
G|---------------------------------------------------|
D|-----------------------------0-3---0-3---0-3---0-3-|
A|----0-3---0-3---0-3---0-3-1-----1-----1-----1------|
E|-1-----1-----1-----1-------------------------------|
 
Verse 2:
G|--------------------------------------------------------|
D|--------------------------------------------------------|
A|----0-3---0-3---5---3-5---3-----0-3---0-3---5---3-5---3-|
E|-1-----1-----------5----5----1-----1-----------5----5---|

G|-------------------------------------------------------------------|
D|---------------------------------0-3---0-3-------------------------|
A|----0-3---0-3---5---3-5---3---1-----1-------3--3--3--3--3--3--3--3-|
E|-1-----1-----------5----5------------------------------------------|

Bridge:
G|-----------------------------------------------------------------|
D|-----------------------------------------------------------------|
A|-3--3-3--3-------------1--1---0--0----------3--3-3--3------------|
E|------------1--1-1--1---------------3--3-3-------------1--1-1--1-|

G|-----------------------------3--3-3-------------------------------|
D|---------------------3--3-3----------1--1---0--0------------------|
A|-1--1-1---1--1-1--1-----------------------------------------------|
E|--------------------------------------------------4--4-4---4--4-4-|




G|----------------------------|
D|----------------------------|
A|-4--4-4----------3--3--3--3-|
E|---------3--3-3-------------|

Chorus:                                    (Play This x2)
G|---------------------------------------------------|
D|-----------------------------0-3---0-3---0-3---0-3-|
A|----0-3---0-3---0-3---0-3-1-----1-----1-----1------|
E|-1-----1-----1-----1-------------------------------|
 
Verse 2:
G|--------------------------------------------------------|
D|--------------------------------------------------------|
A|----0-3---0-3---5---3-5---3-----0-3---0-3---5---3-5---3-|
E|-1-----1-----------5----5----1-----1-----------5----5---|

G|-------------------------------------------------------------------|
D|---------------------------------0-3---0-3-------------------------|
A|----0-3---0-3---5---3-5---3---1-----1-------3--3--3--3--3--3--3--3-|
E|-1-----1-----------5----5------------------------------------------|

Interlude:
G|-----------------------------------------------------------------|
D|-----------------------------------------------------------------|
A|-3--3-3--3-------------1--1---0--0----------3--3-3--3------------|
E|------------1--1-1--1---------------3--3-3-------------1--1-1--1-|

G|-----------------------------3--3-3-------------------------------|
D|---------------------3--3-3----------1--1---0--0------------------|
A|-1--1-1---1--1-1--1-----------------------------------------------|
E|--------------------------------------------------4--4-4---4--4-4-|

G|----------------------------|
D|----------------------------|
A|-4--4-4----------3--3--3--3-|
E|---------3--3-3-------------|

Chorus:                                    (Play This x2)
G|---------------------------------------------------|
D|-----------------------------0-3---0-3---0-3---0-3-|
A|----0-3---0-3---0-3---0-3-1-----1-----1-----1------|
E|-1-----1-----1-----1-------------------------------|

Verse 4:                                      (Song Fades Out)
G|--------------------------------------------------------|
D|--------------------------------------------------------|
A|----0-3---0-3---5---3-5---3-----0-3---0-3---5---3-5---3-|
E|-1-----1-----------5----5----1-----1-----------5----5---|



Honey honey, how you thrill me, ah-hah, honey honey
Honey honey, nearly kill me, ah-hah, honey honey
I'd heard about you before
I wanted to know some more
And now I know what they mean, you're a love machine
Oh, you make me dizzy

Honey honey, let me feel it, ah-hah, honey honey
Honey honey, don't conceal it, ah-hah, honey honey
The way that you kiss goodnight
(The way that you kiss me goodnight)
The way that you hold me tight
(The way that you're holding me tight)
I feel like I wanna sing when you do your thing

I don't wanna hurt you, baby, I don't wanna see you cry
So stay on the ground, girl, you better not get too high
But I'm gonna stick to you, boy, you'll never get rid of me
There's no other place in this world where I rather would be

Honey honey, touch me, baby, ah-hah, honey honey
Honey honey, hold me, baby, ah-hah, honey honey
You look like a movie star
(You look like a movie star)
But I know just who you are
(I know just who you are)
And, honey, to say the least, you're a dog-gone beast

So stay on the ground, girl, you better not get too high
There's no other place in this world where I rather would be

Honey honey, how you thrill me, ah-hah, honey honey
Honey honey, nearly kill me, ah-hah, honey honey
I heard about you before
I wanted to know some more
And now I know what they mean, you're a love machine
Suggest correction
Give kudos to tab author, rate the tab!
1 2 3 4 5
comments
print report bad tab
guest
You may want to rate the tab now too:
select rating
Wanna post a correction for this tab? Suggest correction