Oops, an error
Loading. Please wait.

King Kong Song Bass Tab

by ABBA
46 views 12 this week
no commentswrite comment
1 2 3 4 5
3 more votes to show rating
add to favorites
launch autoscroll
font size
0
reset
guitar tuner
Autoscroll
slow
fast
+/-
esc
set tempo
stop
Help us to improve Ultimate-Guitar.com Take our survey!
×
Author
Difficulty
intermediate
Song: King Kong Song
Artist: ABBA
Album: Waterloo                                       

                                                                                
[INTRO]
     E  E  E  E  E  E  E  E     E  E  E  E  E  E  E  E       
G||--------------------------|--------------------------|
D||--------------------------|--------------------------|
A||--------------------------|--------------------------| x3
E||--0--2--3-----3-----0--2--|--3-----3-----0--2--3-----|

                                                        [VERSE]
    E  E  E  E  E  E  E  E     E  E  E  E  E  E  E  E      E  E  E  E  E  E  E  E   
G|--------------------------|--------------------------||--------------------------|
D|--------------------------|--------------------------||--------------------------|
A|--------------------------|--------------------------||--------------------------|
E|--0--2--3-----3-----0--2--|--3-----3-----0--2--3-----||--3-----3-----1--3-----1--|


    E  E  E  E  E  E  E  E     E  E  E  E  E  E  E  E     E  E  E  E  E  E  E  E   
G|--------------------------|--------------------------|--------------------------|
D|--------------------------|--------------------------|--------------------------|
A|--------------------------|--------------------------|--------------2--2--3--4--|
E|--3-----3-----1--3-----1--|--3-----3-----3--3-----3--|-----3-----3--------------|


    E  E  E  E  E  E  E  E     E  Q    E  E  E  E  E     E  E  E  E  E  E  E    E   
G|--------------------------|-------------------------|----------------------------|
D|--------------------------|-------------------------|-----------------------1g3--|
A|--5-----5-----0--3-----3--|--5-------5--0--3--5--3--|--5-----5-----0--3----------|
E|--------------------------|-------------------------|----------------------------|


    E  E  E  E  E  E  E  E     E  E  E  E  E  E  E  E     E  E  E  E  E  E  E  E   
G|--------------------------|--------------------------|--------------------------|
D|--------------------------|--------------------------|--------------------3--4--|
A|-----5--5-----0--3--5--0--|--------------------------|--------------3--5--------|
E|--------------------------|--3-----3-----3--3-----3--|-----3-----3--------------|


    E  E  E  E  E  E  E  E     E  E  E  E  E  E  E  E     E  E  E  E  E  E  E  S  S  
G|--------------------------|--------------------------|----------------------------|
D|--5-----------------------|--------------------------|----------------------------|
A|--------------------------|--------------2--2--3--4--|--5-----5-----3--5-----3h-5-|
E|--------3-----3--3-----3--|-----3-----3--------------|----------------------------|


    E  E  E  E  E  E  E  E     E  E  E  E  E  E  E  E     E  E  E  E  E  E  E  E   
G|--------------------------|--------------------------|--------------------------||
D|--------------3-----2--1--|--------------------------|--------------------------||
A|-----5-----5-----5--------|--5-----5-----0--5-----5--|-----5-----5--0--5--5-----||
E|--------------------------|--------------------------|--------------------------||

 [PRE-CHORUS]
    E  E  E  E  E  E  E  E     E  E  E  E  E  E  Q       E  E  E  E  E  E  E  E   
G|--------------------------|--2-----------0----------|--------------------------|
D|--------------------------|-----------2-----0-------|--------------------------|
A|--------------------------|-----4--5-----------0----|--------------------------|
E|--------------------------|-------------------------|--------------------------|

                           [CHORUS]
    E  E  Q    E  E  Q        E  E  E  E  E  E  E  E     E  E  E  E  E  E  E  E   
G|--0--2--5---------------||--------------------------|--------------------------|
D|-------------1--0-------||--------------------------|--------------------------|
A|-------------------3----||--5-----5-----0--0--------|--------------------------|
E|------------------------||-----------------------4--|--3-----3-----3--3--2--1--|


    E  E  E  E  E  E  E  E     E  E  E  E  E  E  E  E     E  E  E  E  E  E  E  E   
G|--------------------------|--------------------------|--------------------------|
D|--------------------------|-----------------------2--|--0-----0-----0--0--------|
A|--------------------------|-----------------2--4-----|-----------------------0--|
E|--0-----0-----2--3-----4--|--5--5-----5--5-----------|--------------------------|


    E  E  E  E  E  E  E  E     E  E  E  E  E  E  E  E     Q    Q    E  E  Q     
G|--------------------------|-----------------0--1--2--|--2----2---------------|
D|--------------------0--1--|--2-----2-----2-----------|-----------------------|
A|--------------------------|--------------------------|------------0----------|
E|--3-----3-----3--3--------|--------------------------|------------------0----|


    H        E  E  E  E     E  E  Q       E  E  E  E  E  E  E  E     E  E  E  E  E  E  E  E   
G|-----------------------|-------------|--------------------------|--------------------------|
D|-----------------------|-------------|--------0-----0-----------|--0-----0-----------0-----|
A|-----------------------|--------4----|--2--4--------------2--4--|--------------2--4--------|
E|--L--------0--3--4--5--|--5----------|--------------------------|--------------------------|

                                                        [VERSE]
    E  E  E  E  E  E  E  E     E  E  E  E  E  E  E  E      E  E  E  E  E  E  E  E   
G|--------------------------|--------------------------||--------------------------|
D|--------0-----0-----------|--0-----0-----------0-----||--------------------------|
A|--2--4--------------2--4--|--------------2--4--------||--5-----5-----0--3-----4--|
E|--------------------------|--------------------------||--------------------------|


    E  E  E.  S E  E  E  E     E  E  E.  S E  E  E  E     E  E  E  E  E  E  E  E   
G|--------------------------|--------------------------|--------------------------|
D|--------------------------|--------------------------|--------------------------|
A|--5-----5---5-0--3--5--3--|--5-----5---5-0--3-----5--|--------------------------|
E|--------------------------|--------------------------|-----2-----2-----3-----4--|


    E  E  E.  S E  E  E  E     E  E  E  E  E  E  E  E     E  E  E  E  E  E  E  E   
G|--------------------------|--------------------------|--------------------------|
D|--------------------------|-----------------5--6--7--|--------------------------|
A|--------------------------|--------------------------|--0-----0-----0--0-----0--|
E|--5-----5---7-5--5-----5--|-----5-----5--5-----------|--------------------------|


    E  E  E  E  E  E  E  E     E  E  E.  S E  E  E  E     Q    E  E  E  E  E  E   
G|--------------------------|--------------------------|-------------------------|
D|--------------------------|--------------------------|-------------------------|
A|-----0-----0--0--0--2--4--|--5-----5---7-0--3-----5--|--5-------5--0--3--5--3--|
E|--------------------------|--------------------------|-------------------------|


    E  E  E.  S E  E  E  E     E  E  E  E  E  E  E  E     E  E  E  E  E  E  E  E   
G|--------------------------|--------------------------|--------------------------|
D|--------------------------|--------------------------|--------------------------|
A|--5-----5---7-0--3-----4--|--5--5--------------------|--0-----0-----0--0-----0--|
E|--------------------------|-----------2-----3-----4--|--------------------------|


    E  E  E  E  E  E  E  E     Q    Q    E  E  E  E     E  E  E  E  E  E  Q     
G|--------------0--1--2--2--|------------------------|-------------------------||
D|--------------------------|------------------------|-------------------------||
A|-----0-----0--------------|--0----0----0--0-----0--|-----0-----0-----0-------||
E|--------------------------|------------------------|-------------------------||

 [PRE-CHORUS]
    E  E  E  E  E  E  E  E     E  E  E  E  E  E  Q       E  E  E  E  E  E  E  E   
G|--------------------------|-------------------------|--------------------------|
D|--------------------------|-------------------------|--------------------------|
A|--------------------------|--7-----------5----------|--------------------------|
E|--------------------------|-----4--5--7-----5--0----|--------------------------|


    E  E  Q    E  E  Q       E  E  E  E  E  E  E  E     E  E  E  E  E  E  Q     
G|--0--2--5---------------|--------------------------|-------------------------|
D|-------------1--0-------|--------------------------|-------------------------|
A|-------------------3----|--------------------------|--7-----------5----------|
E|------------------------|--------------------------|-----4--5--7-----5--0----|

                                                      [CHORUS]
    E  E  E  E  E  E  E  E     E  E  Q    E  E  Q        E  E  E  E  E  E  E  E   
G|--------------------------|--0--2--5---------------||--------------------------|
D|--------------------------|-------------1--0-------||--------------------------|
A|--------------------------|-------------------3----||--5-----5-----5--5-----0--|
E|--------------------------|------------------------||--------------------------|


    E  E  E  E  E  E  E  E     E  E  E  E  E  E  E  E     E  E  E  E  E  E  E  E   
G|--------------------------|--------------------------|--------------------------|
D|--------------------------|--------------------------|--------------------------|
A|--------------------------|--------------------------|--------------2--2--3--4--|
E|--3-----3-----3--3--2--1--|--0-----0-----2--3-----4--|--5--5-----5--------------|


    E  E  E  E  E  E  E  E     E  E  E  E  E  E  E  E     E  E  E.  S E  E  E  E   
G|--------------------------|--------------------------|--------------------------|
D|--------------------------|--------5--5-----4--------|--2-----2---4----0--2-----|
A|--5-----5-----0--5-----0--|--------------------5--6--|--------------2--------0--|
E|--------------------------|--3-----------------------|--------------------------|


    Q    E  E  E  E  Q       H        E  E  E  E     E  E  E  E     E  E  E  E  E  E  E  E   
G|------------------------|-----------------------|--------------|--------------------------|
D|------------------------|-----------------------|--------------|--------0-----0-----------|
A|-------0-----0----------|-----------------------|--------------|--2--4--------------2--4--|
E|-------------------0----|--L--------0--3--4--5--|--5-----5-----|--------------------------|


    E  E  E  E  E  E  E  E     E  E  E  E  E  E  E  E     E  E  E  E  E  E  E  E   
G|--------------------------|--------------------------|--------------------------|
D|--0-----0-----------0-----|--------0-----0-----------|--0-----0-----------0-----|
A|--------------2--4--------|--2--4--------------2--4--|--------------2--4--------|
E|--------------------------|--------------------------|--------------------------|


    E  E  E  E  E  E  E  E     E  E  E  E  E  E  E  E     E  E  E  E  E  E  E  E   
G|--------------------------|--------------------------|--------------------------|
D|--------0-----0-----------|--0-----0-----------0-----|--------0-----0-----------|
A|--2--4--------------2--4--|--------------2--4--------|--2--4--------------2--4--|
E|--------------------------|--------------------------|--------------------------|

                                                        [PRE-CHORUS]
    E  E  E  E  E  E  E  E     E  E  E  E  E  E  E  E      E  E  E  E  E  E  Q     
G|--------------------------|--------------------------||--2-----------0----------|
D|--0-----0-----------0-----|--------------------------||-----------2-----0-------|
A|--------------2--4--------|--------------------------||-----4--5-----------0----|
E|--------------------------|--------------------------||-------------------------|

                                                      [CHORUS]
    E  E  E  E  E  E  E  E     E  E  Q    E  E  Q        E  E  E.  S E  E  E  E   
G|--------------------------|--0--2--5---------------||--------------------------|
D|--------------------------|-------------1--0-------||--------------------------|
A|--------------------------|-------------------3----||--5-----5---7-5--5-----0--|
E|--------------------------|------------------------||--------------------------|


    E  E  E  E  E  E  E  E     E  E  E  E  E  E  E  E     E  E  E  E  E  E  E  E   
G|--------------------------|--------------------------|--------------------------|
D|--------------5-----------|--------------------------|--------------------------|
A|-----------5--------------|--------------------------|--0--1--L--2--L--3--L--4--|
E|--3-----3--------3--2--1--|--0-----0--0--2--3-----4--|--------------------------|


    E  E  E  E  E  E  E  E     E  E  E.  S E  E  E  E     E  E  E  E  E  E  E  E   
G|--------------------------|--------------------------|--------------------------|
D|--------------------------|--------------------------|--------------------------|
A|--5-----5-----0--5-----0--|--------------------------|--------------------------|
E|--------------------------|--3-----3---5-3--3--2--1--|--0-----0-----0--3--L--4--|


    E  E  E  E  E  E  Q       H        E  E  E  E     E  E  E  E  E  E  E  E   
G|-------------------------|-----------------------|--------------------------|
D|-------------------------|-----------------------|--------------------------|
A|-------------------------|-----------------------|-----0-----0--0--0--2--4--|
E|--5-----5-----5-----0----|--L--------0--0--3--4--|--------------------------|


    E  E  E  E  E  E  E  E     E  E  E  E  E  E  E  E     E  E  E  E  E  E  E  E   
G|--------------------------|--------------------------|--------0-----0--1--L--2--|
D|-----------------------4--|--5-----5-----5--5--4--0--|--2--2-----2--------------|
A|--5-----5--5--0--3--5-----|--------------------------|--------------------------|
E|--------------------------|--------------------------|--------------------------|


    E  E  E  E  E  E  E  E     E  E  E.  S E  E  E  E     E  E  E  E  E  E  E  E   
G|--L--2--L--2--2--0--------|--------------------------|--------------------------|
D|--------------------4--2--|--0-----0---2-0--0--------|--------------------------|
A|--------------------------|-----------------------0--|--------------------------|
E|--------------------------|--------------------------|--3-----3-----3--2-----1--|


    E  E  E  E  E  E  E  E     E  E  E  E  E  E  Q       H        E  E  E  E     E  E  E  E   
G|--------------------------|-------------------------|-----------------------|--------------||
D|--------------------------|-------------------------|-----------------------|--------------||
A|--------------------------|-------------------------|-----------------------|--------------||
E|--0-----0-----0--2--3--4--|--5-----5-----5-----0----|--L--------0--0--5--0--|--5-----5-----||

 [OUTRO]
    E  E  E  E  E  E  E  E     E  E  E  E  E  E  E  E       
G|--------------------------|--------------------------||
D|--------0-----0-----------|--0-----0-----------0-----||
A|--2--4--------------2--4--|--------------2--4--------|| repeat until end
E|--------------------------|--------------------------||


Symbol Legend
---------------
| g   Grace note
| h   Hammer-on
| /   Slide up
| \   Slide down
| L   Tied note (hold note for that extra length)

************************************

Duration Legend
---------------
W - whole
H - half
Q - quarter
E - 8th
S - 16th
. - note dotted



Suggest correction
Give kudos to tab author, rate the tab!
1 2 3 4 5
comments
print report bad tab
guest
You may want to rate the tab now too:
select rating
Wanna post a correction for this tab? Suggest correction