Oops, an error
Loading. Please wait.

Nina Pretty Ballerina Bass Tab

by ABBA
19 views 1 this week
no commentswrite comment
1 2 3 4 5
3 more votes to show rating
add to favorites
launch autoscroll
font size
0
reset
guitar tuner
Autoscroll
slow
fast
+/-
esc
set tempo
stop
Help us to improve Ultimate-Guitar.com Take our survey!
×
Author
Difficulty
Song: Nina, Pretty Ballerina
Artist: ABBA
Album: Ring Ring


[Intro] 0:00

G|---------------------------------------------------------------------------|
D|---------------------------------------------------------------------------|
A|--3---3--3---3--4---4--4---4--5---5--5---5---------------------------------|
E|--------------------------------------------3------------------------------|


[Verse] 0:13

G|---------------------------------------------------------------------------|
D|---------------------------------------------------------------------------|
A|--3-------------3--------------------3--3----------------------------------| x 2
E|------3--3---3------3--3---3--1---1---------1------------------------------| 

G|---------------------------------------------------------------------------|
D|---------------------------------------------------------------------------|
A|--3-------------3-----------------------------3-------------3------3-------| 
E|------3--3---3------0--1--2--3---3--3--3---3------3--3---3------3------3---| 

G|---------------------------------------------------------------------------|
D|---------------------------------------------------------------------------|
A|-------------------3---3-----3-----------------------3---3------------3----| 
E|--1---1--1--1---1---------3------3--1---1--1--1---1---------3--3---3-------| 


G|---------------------------------------------------------------------------|
D|---------------------------------------------------------------------------|
A|--3--4---4---------10\-----------------------------------------------------|
E|------------3------------3-------------------------------------------------|


[Chorus] 0:47

G|------5--0--2--0----------5--0--2--0---------------------------------------|
D|------------------2---------------------------5----------------------------|
A|--3-------------------3---------------3----------5--7--5--2----------------|
E|------------------------------------------3------------------3-------------|

G|-----0-----------------------------------------0---------------------------|
D|--------0--2--0----------5------------------------0--2--0------------------|
A|-----------------2----------5--7--5--2---------------------2---------------|
E|--3------------------3------------------3---3------------------------------|

G|------5--0--2--0----------------0--0h2-5--0h2-5----------------------------|
D|------------------2--------------------------------------------------------|
A|--3------------------3---3--5h7--------------------------------------------|
E|---------------------------------------------------------------------------|

G|------5--0--2--0----------5--0--2--0---------------------------------------|
D|------------------2---------------------------5----------------------------|
A|--3-------------------3---------------3----------5--7--5--2----------------|
E|------------------------------------------3------------------3-------------|

G|-----0-----------------------------------------0---------------------------|
D|--------0--2--0----------5------------------------0--2--0------------------|
A|-----------------2----------5--7--5--2---------------------2---------------|
E|--3------------------3------------------3---3------------------------------|

G|------5--0--2--0-----------------------------------------------------------|
D|--------------------------5------------------------------------------------|
A|--3---------------3----------5--7--5--2---3---3--4---3---------------------|
E|----------------------3---------------------------------3---3--3--3--3-----|


[Verse] 1:23

G|---------------------------------------------------------------------------|
D|---------------------------------------------------------------------------|
A|--3-------------3--------------------3--2----------------------------------| 
E|------3--3---3------3--3---3--1---1---------1------------------------------| 

G|---------------------------------|
D|---------------------------------|
A|--3--------------------3--2------|
E|------3--5---3--1---1---------1--|

G|---------------------------------------------------------------------------|
D|---------------------------------------------------------------------------|
A|--3-------------3-----------------------------3-------------3------3-------| 
E|------3--3---3------0--1--2--3---3--3--3---3------3--3---3------3------3---| 

G|---------------------------------------------------------------------------|
D|---------------------------------------------------------------------------|
A|---------3---------3---3-----3--------------3-----3-------------3----------| 
E|--1---1-----1---1---------3------3--1---1------1------3--3---3-------------| 


G|---------------------------------------------------------------------------|
D|---------------------------------------------------------------------------|
A|--3--4---4---------10\-----------------------------------------------------|
E|------------3------------3-------------------------------------------------|


[Chorus] 1:56

G|------5--0--2--0------------5--0--2--0-------------------------------------|
D|------------------2-----------------------------5--------------------------|
A|--3------------------3---3--------------3----------5--7--5--2--------------|
E|--------------------------------------------3------------------3-----------|

G|-----0-----------------------------------------0---------------------------|
D|--------0--2--0----------5------------------------0--2--0------------------|
A|-----------------2----------5--7--5--2---------------------2---------------|
E|--3------------------3------------------3---3------------------------------|

G|------5--0--2--0----------------0--0h2-5--0h2-5----------------------------|
D|------------------2--------------------------------------------------------|
A|--3------------------3---3--5h7--------------------------------------------|
E|---------------------------------------------------------------------------|

G|------5--0--2--0------------5--0--2--0-------------------------------------|
D|------------------2-----------------------------5--------------------------|
A|--3------------------3---3--------------3----------5--7--5--2--------------|
E|--------------------------------------------3------------------3-----------|

G|-----0-----------------------------------------0---------------------------|
D|--------0--2--0----------5------------------------0--2--0------------------|
A|-----------------2----------5--7--5--2---------------------2---------------|
E|--3------------------3------------------3---3------------------------------|

G|---------------------------------------------------------------------------|
D|---------------------------------------------------------------------------|
A|--3---3--4---3-------------------------------------------------------------|
E|----------------3---3--3--3--3---------------------------------------------|

G|------5--0--2--0------------5--0--2--0-------------------------------------|
D|------------------2-----------------------------5--------------------------|
A|--3------------------3---3--------------3----------5--7--5--2--------------|
E|--------------------------------------------3------------------3-----------|

G|-----0-----------------------------------------0---------------------------|
D|--------0--2--0----------5------------------------0--2--0------------------|
A|-----------------2----------5--7--5--2---------------------2---------------|
E|--3------------------3------------------3---3------------------------------|

G|------5--0--2--0----------------0--0h2-5--0h2-5----------------------------|
D|------------------2--------------------------------------------------------|
A|--3------------------3---3--5h7--------------------------------------------|
E|---------------------------------------------------------------------------|

************************************

| h   Hammer-on
| /   Slide up
| \   Slide down

************************************
Suggest correction
Give kudos to tab author, rate the tab!
1 2 3 4 5
comments
print report bad tab
guest
You may want to rate the tab now too:
select rating
Wanna post a correction for this tab? Suggest correction