Oops, an error
Loading. Please wait.

People Need Love Bass Tab

by ABBA
13 views 1 this week
no commentswrite comment
1 2 3 4 5
3 more votes to show rating
add to favorites
launch autoscroll
font size
0
reset
guitar tuner
Autoscroll
slow
fast
+/-
esc
set tempo
stop
Help us to improve Ultimate-Guitar.com Take our survey!
×
Author
Difficulty
Song: People Need Love
Artist: ABBA
Album: Ring Ring


[Chorus] 0:00

G|--4------------------------------------------------------------------------|
D|---------------------------------------------------------------------------|
A|--2------------------------------------------------------------------------|
E|---------------------------------------------------------------------------|

G|-------------------4-3-1---------3---4----4p1------------------------------|
D|-------4----2----x---------4--4---------------4p1--------------------------|
A|--2------------------------------------------------------------------------|
E|---------------------------------------------------------------------------|

G|-------------------4-3-1---------3--\--------------------------------------|
D|-------4----2----x---------4--4--------------------------------------------|
A|--2--------------------------------------2---------------------------------|
E|---------------------------------------------------------------------------|


[Verse] 0:18

G|--------------------4-3-1---------3----8-6-4-------------------------------|
D|-------4--4--2----x----------4----------------4-1-4------------------------|
A|--2------------------------------------------------------------------------|
E|---------------------------------------------------------------------------|

G|-------------------4-3-1----4---------4-------1-4\-------------------------|
D|-------4----2----x---------------4----------4------------------------------|
A|--2------------------------------------------------------------------------|
E|---------------------------------------------------------------------------|

G|--------------------4-3-1---------3----8-6-4-------------------------------|
D|-------4--4--2----x----------4----------------4-1-4------------------------|
A|--2------------------------------------------------------------------------|
E|---------------------------------------------------------------------------|

G|-------------------4-3-1---------3--\--------------------------------------|
D|-------4----2----x----------4----------------------------------------------|
A|--2--------------------------------------2---------------------------------|
E|---------------------------------------------------------------------------|

[Chorus] 0:44

G|-------------------4-3-1----------3-----4-----4p1--------------------------|
D|-------4----2----x---------4----3-----4-----------4-1----------------------|
A|--2------------------------------------------------------------------------|
E|---------------------------------------------------------------------------|

G|-------------------4-3-1--------3----4----15-13-11-------------------------|
D|-------4----2----x---------4-----------------------11-9---\----------------|
A|--2------------------------------------------------------------------------|
E|---------------------------------------------------------------------------|

G|-------------------4-3-1---------3----4----4p1-----------------------------|
D|-------4----2----x----------4------------------4p1-------------------------|
A|--\------------------------------------------------------------------------|
E|---------------------------------------------------------------------------|

G|-------------------4-3-1---------3--\--------------------------------------|
D|-------4----2----x----------4----------------------------------------------|
A|--2--------------------------------------2---------------------------------|
E|---------------------------------------------------------------------------|

[Verse] 1:11

G|--------------------4-3-1---------3----8-6-4-------------------------------|
D|-------4-----2----x----------4----------------4-1-4------------------------|
A|--2------------------------------------------------------------------------|
E|---------------------------------------------------------------------------|

G|-------------------4-3-1----4---------4-------1-4\-------------------------|
D|-------4----2----x---------------4----------4------------------------------|
A|--2------------------------------------------------------------------------|
E|---------------------------------------------------------------------------|

G|--------------------4-3-1---------3----8-6-4-------------------------------|
D|-------4-----2----x----------4----------------4-1-4------------------------|
A|--2------------------------------------------------------------------------|
E|---------------------------------------------------------------------------|

G|-------------------4-3-1---------3--\--------------------------------------|
D|-------4----2----x----------4----------------------------------------------|
A|--2------------------------------------0h2---------------------------------|
E|---------------------------------------------------------------------------|


[Chorus] 1:36

G|-------------------4-3-1---------3----4----4p1-----------------------------|
D|-------4----2----x----------4------------------4p1-------------------------|
A|--2------------------------------------------------------------------------|
E|---------------------------------------------------------------------------|

G|-------------------4-3-1--------3----4----15-13-11-------------------------|
D|-------4----2----x---------4-----------------------11-9---\----------------|
A|--2------------------------------------------------------------------------|
E|---------------------------------------------------------------------------|

G|-------------------4-3-1---------3----4---3h4-1----------------------------|
D|-------4----2----x----------4------------------4p1-------------------------|
A|--\------------------------------------------------------------------------|
E|---------------------------------------------------------------------------|

G|------------------4------------3--\----------------------------------------|
D|-------4----2---------2---4------------------------------------------------|
A|--2--------------------------------------2---------------------------------|
E|---------------------------------------------------------------------------|


[Chorus] 2:02

G|--------------------8-6-5-3-------5----10-8-6------------------------------|
D|-------6-----4----x----------6----------------6-3-6------------------------|
A|--4------------------------------------------------------------------------|
E|---------------------------------------------------------------------------|

G|--------------------8-6-5---------5----10-8-6------------------------------|
D|-------6-----4----x----------6----------------6-3-6------------------------|
A|--4------------------------------------------------------------------------|
E|---------------------------------------------------------------------------|


G|--------------------8-6-5-3-------5----10-8-6------------------------------|
D|-------6-----4----x----------6----------------6-3-6------------------------|
A|--4------------------------------------------------------------------------|
E|---------------------------------------------------------------------------|

G|--------------------8-6-5---------5----10-8-6------------------------------|
D|-------6-----4----x----------6----------------6-3-6------------------------|
A|--4------------------------------------------------------------------------| Repeat until end
E|---------------------------------------------------------------------------|


************************************

| x   Dead note
| h   Hammer-on
| p   Pull-off
| \   Slide down

************************************
Suggest correction
Give kudos to tab author, rate the tab!
1 2 3 4 5
comments
print report bad tab
guest
You may want to rate the tab now too:
select rating
Wanna post a correction for this tab? Suggest correction