Oops, an error
Loading. Please wait.

Sitting In The Palmtree Bass Tab

by ABBA
25 views 1 this week
no commentswrite comment
1 2 3 4 5
3 more votes to show rating
add to favorites
launch autoscroll
font size
0
reset
guitar tuner
Autoscroll
slow
fast
+/-
esc
set tempo
stop
Help us to improve Ultimate-Guitar.com Take our survey!
×
Author
Difficulty
Song: Sitting in the Palmtree
Artist: ABBA
Album: Waterloo


[Intro] 0:00

G|--------2------------------------------------------------------------------|
D|--0--4---------------------------------------------------------------------|
A|------------------------0--------------------------------------------------| x3
E|---------------2--3--------------------------------------------------------| 


[Verse] 0:18

G|--------2------------------------------------------------------------------|
D|--0--4---------------------------------------------------------------------|
A|------------------------0--------------------------------------------------| x4
E|---------------2--3--------------------------------------------------------| 

G|--------2------1--2--------------------------------------------------------|
D|--0--4---------------------------------------------------------------------|
A|------------------------0--------------------------------------------------| x2
E|---------------------------------------------------------------------------| 


[Chorus] 0:43

G|--6--7---------------------------------------0-----------------------------|
D|--------0------2--------------------2-----2--------------------------------|
A|------------------------------0--4--------------0--------------------------| 
E|--------------------2------------------------------------------------------| 

G|--6--7---------------------------0--4--------0-----------------------------|
D|--------0------2--------------2-----------2--------------------------------|
A|------------------------------------------------0--------------------------| 
E|--------------------2------------------------------------------------------| 

G|-----0--4-------------------------------------------6--7-------0----2------|
D|--2---------2--4-----------------0--4-----0--2------------0----------------|
A|------------------------------2--------------------------------------------| 
E|--------------------2------------------------------------------------------|

G|--------2------------------------------------------------------------------|
D|--0--4---------------------------------------------------------------------|
A|------------------------0--------------------------------------------------| x2
E|---------------2--3--------------------------------------------------------| 


[Verse] 1:22

G|--------2------------------------------------------------------------------|
D|--0--4---------------------------------------------------------------------|
A|------------------------0--------------------------------------------------| x4
E|---------------2--3--------------------------------------------------------| 

G|--------2------1--2--------------------------------------------------------|
D|--0--4---------------------------------------------------------------------|
A|------------------------0--------------------------------------------------| 
E|---------------------------------------------------------------------------| 

G|--------2------1--2-----2--------------6--7----------0---------------------|
D|--0--4---------------------------------------0-----------------------------|
A|-----------------------------------------------------------0---------------| 
E|---------------------------------------------------------------------------|

G|--------2------6--7--------------------------------------------------------|
D|--0--4------------------0--------------------------------------------------|
A|---------------------------------------------------------------------------| 
E|---------------------------------------------------------------------------| 


[Bridge] 1:56

G|--------------------------------0------------------------------------------|
D|--0----0----0--------------------------------------------------------------|
A|--------------------------------3----0-------------------------------------|
E|-----------------3----3----3-----------------------------------------------|


[Verse] 2:13

G|--------2------------------------------------------------------------------|
D|--0--4---------------------------------------------------------------------|
A|------------------------0--------------------------------------------------| x4
E|---------------2--3--------------------------------------------------------| 

G|--------2------1--2--------------------------------------------------------|
D|--0--4---------------------------------------------------------------------|
A|------------------------0--------------------------------------------------| 
E|---------------------------------------------------------------------------| 

G|--------2------1--2-----2--------------6--7----------0---------------------|
D|--0--4---------------------------------------0-----------------------------|
A|-----------------------------------------------------------0---------------| 
E|---------------------------------------------------------------------------|

G|--------2------6--7--------------------------------------------------------|
D|--0--4------------------0--------------------------------------------------|
A|---------------------------------------------------------------------------| 
E|---------------------------------------------------------------------------| 


[Chorus] 2:38

G|--6--7---------------------------------------0-----------------------------|
D|--------0------2--------------------2-----2--------------------------------|
A|------------------------------0--4--------------0--------------------------| 
E|--------------------2------------------------------------------------------| 

G|--6--7---------------------------0--4--------0-----------------------------|
D|--------0------2--------------2-----------2--------------------------------|
A|------------------------------------------------0--------------------------| 
E|---------------------------------------------------------------------------| 

G|-----0--4-------------------------------------------6--7-------0-----------|
D|--2---------2-4-----------------0--4-----0--2------------0-----------------|
A|------------------------------2-------------------------------------0------| 
E|--------------------2------------------------------------------------------|

G|--------2------------------------------------------------------------------|
D|--0--4---------------------------------------------------------------------|
A|------------------------0--------------------------------------------------| repeat until fade out
E|---------------2--3--------------------------------------------------------| 
Suggest correction
Give kudos to tab author, rate the tab!
1 2 3 4 5
comments
print report bad tab
guest
You may want to rate the tab now too:
select rating
Wanna post a correction for this tab? Suggest correction