Oops, an error
Loading. Please wait.
We have an official Sos tab made by UG professional guitarists. Check out the tab »
×
by ABBA
6,637 views 21 this week
no commentswrite comment
1 2 3 4 5
x 7
add to favorites
×
Save as Personal and add changes to this tab that will be seen only by you. Learn more ›
×
You can save this tab as Personal to edit and correct it or add notes. All changes will be seen only by you. Learn more »
launch autoscroll
font size
0
reset
guitar tuner
edit
Autoscroll
slow
fast
+/-
esc
set tempo
stop
Author
++++++++++++++++
| ABBA- S.O.S. |
++++++++++++++++


"So when you're near me darling, cant you hear me?"

Tuning: EADG


Verse
"Where are those happy days?"
1.
G|-7~----6~----7~--------7~----6~----7~----------------------7~----|
D|-----------------------------------------3~----------5~----------|
A|-----------------------------------------------3~----------------|
E|-----------------------------------------------------------------|

"It used to be so nice..."
2.
G|-------/6~----7~--6~--7~--9~--10~--12~--10~--9~--|
D|-------------------------------------------------|
A|-5~----------------------------------------------|
E|-------------------------------------------------|

Chorus
"So when you're near me darling..."
3.
G|----------------------------------------------------------------------------------|
D|-33--3---------------33---33---33---33---33--3---------------33---33---33---33----|
A|------33--3-----11--1----3----3----3----3-----33--3-----11--1----3----3----3----3-|
E|-----------33--3-----------------------------------33--3--------------------------|

"When you're gone..."
4.
G|----------------------------------------------------------------------------------|
D|---------------------33---33---33---33-----------------------33---33---33---3--2--|
A|-11--111--144--466--6----3----3----3---3-11--111--144--466--6----3----3----3------|
E|----------------------------------------------------------------------------------|

Verse
"You seem so far away..."
5.
G|-7~----6~----7~--------7~----6~----7~----------------------7~----|
D|-----------------------------------------3~----------5~----------|
A|-----------------------------------------------3~----------------|
E|-----------------------------------------------------------------|

"What happened to our love..."
6.
G|-------/6~----7~--6~--7~--9~--10~--12~--10~--9~--|
D|-------------------------------------------------|
A|-5~----------------------------------------------|
E|-------------------------------------------------|

Chorus
"So when you're near me darling..."
7.
G|----------------------------------------------------------------------------------|
D|-33--3---------------33---33---33---33---33--3---------------33---33---33---33----|
A|------33--3-----11--1----3----3----3----3-----33--3-----11--1----3----3----3----3-|
E|-----------33--3-----------------------------------33--3--------------------------|

"When you're gone..."
8.
G|----------------------------------------------------------------------------------|
D|---------------------33---33---33---33-----------------------33---33---33---3--2--|
A|-11--111--144--466--6----3----3----3---3-11--111--144--466--6----3----3----3------|
E|----------------------------------------------------------------------------------|

Bridge
9.
G|------------------------------7~--9~--10~--12~--|
D|-------/7~---------------------------------10~--|
A|-5~---------------------------------------------|
E|------------------------------------------------|

Chorus
"So when you're near me darling..."
10.
G|----------------------------------------------------------------------------------|
D|-33--3---------------33---33---33---33---33--3---------------33---33---33---33----|
A|------33--3-----11--1----3----3----3----3-----33--3-----11--1----3----3----3----3-|
E|-----------33--3-----------------------------------33--3--------------------------|

"When you're gone..."
11.
G|----------------------------------------------------------------------------------|
D|---------------------33---33---33---33-----------------------33---33---33---33----|
A|-11--111--144--466--6----3----3----3---3-11--111--144--466--6----3----3----3----3-|
E|----------------------------------------------------------------------------------|

"When you're gone..."
12.
G|----------------------------------------------------------------------------------|
D|---------------------33---33---33---33-----------------------33---3--2--0~--------|
A|-11--111--144--466--6----3----3----3---3-11--111--144--466--6----3----------------|
E|----------------------------------------------------------------------------------|


Please rate thanks!

Lyrics:

Where are those happy days, they seem so hard to find
I tried to reach for you, but you have closed your mind
Whatever happened to our love?
I wish I understood
It used to be so nice, it used to be so good

So when you're near me, darling can't you hear me
S. O. S.
The love you gave me, nothing else can save me
S. O. S.
When you're gone
How can I even try to go on?
When you're gone
Though I try how can I carry on?

You seem so far away though you are standing near
You made me feel alive, but something died I fear
I really tried to make it out
I wish I understood
What happened to our love, it used to be so good



+++++++++++
| Raileff |
+++++++++++

            
            
Suggest correction
Creating personal tab
Creating personal tab
You can edit any tab online and save it as your Personal.

You can edit, replace or remove any tab part or add personal notes – all changes will be seen only by you.

Personal tabs can be accessed anytime from any device, even offline.
Learn more »
comments
print report bad tab
guest
You may want to rate the tab now too:
select rating
Wanna post a correction for this tab? Suggest correction