Oops, an error
Loading. Please wait.

Super Trouper Tab

241 views 9 this week
no commentswrite comment
1 2 3 4 5
2 more votes to show rating
add to favorites
launch autoscroll
font size
0
reset
how to read this tab
guitar tuner
×
Best way to learn
"Super Trouper"
Autoscroll
slow
fast
+/-
esc
set tempo
stop
Author
Difficulty
About this tab version
This is the melody of the song, so what the singer is singing but on guitar. Was this info helpful? Yes No
[Chorus]

e|-----0|-3-3-1-1|-0--0-1-0-|-1-1-0-0-1-1-0-0-----0-----|
B|---1--|--------|--3------3|--------3-------3-1-3-3-1-1|
G|-0----|--------|----------|---------------------------|
D|------|--------|----------|---------------------------|
A|------|--------|----------|---------------------------|
E|------|--------|----------|---------------------------|


[Verse]

e|------0-----0-3-|3-3-3-1-1-1-3-0-3-3|
B|---1-3-3-1-3----|-------------------| x2
G|-0--------------|-------------------|
D|----------------|-------------------|
A|----------------|-------------------|
E|----------------|-------------------|


[Bridge]

e|-------------------|------------|-----------------0------0-3|
B|--1-1-------1-1-0-1|-0-1--------|----0-1-------1-3-3-1-3----|
G|-2---2-2-0-0---0---|2----2-2-0-0|---2---2-2-0-0-------------|
D|-------------------|------------|---------------------------|
A|-------------------|------------|---------------------------|
E|-------------------|------------|---------------------------|

[Chorus]x2
[Verse]x2
[Bridge]
[Chorus]x2

[Middle Eight]

e|--------|--------|-----------------0-0-0|-0-0-1-0----------|----1-1-0-0--------|
B|-1-1-0-1|-1-1-0-1|-1-1-0-1-3-3-1-3----3-|--------3-1-------|-----------3-3-1-3-|
G|--------|--------|----------------------|-----------2-2-0-2|-2-2---------------|
D|--------|--------|----------------------|------------------|-------------------|
A|--------|--------|----------------------|------------------|-------------------|
E|--------|--------|----------------------|------------------|-------------------|

[Chorus] x2
Suggest correction
Give kudos to tab author, rate the tab!
1 2 3 4 5
comments
print report bad tab
guest
You may want to rate the tab now too:
select rating
Wanna post a correction for this tab? Suggest correction