Oops, an error
Loading. Please wait.

The Day Before You Came bass

by ABBA
394 views 9 this week
no commentswrite comment
1 2 3 4 5
x 3
add to favorites
×
Save as Personal and add changes to this tab that will be seen only by you. Learn more ›
×
You can save this tab as Personal to edit and correct it or add notes. All changes will be seen only by you. Learn more »
launch autoscroll
font size
0
reset
guitar tuner
edit
Autoscroll
slow
fast
+/-
esc
set tempo
stop
Author
Difficulty
ORDER: I V1 C1 INT1 V2 C2 -VS1- INT2 V3 -VS2- O


[INTRO]

G|---||-------------------|-------------------||
D|---||-o-----------------|-----------------o-||
A|-3-||-o-3---------------|---------------3-o-||
E|---||-------------------|-------------------||
   +      1 + 2 + 3 + 4 +   1 + 2 + 3 + 4 +


[VERSE 1]

G|-----------------|---------|-----------------|-----------------|
D|-----------------|---------|---------------5-|-----------------|
A|-3-------------3-|---------|-----------------|-----------------|
E|-----------------|-4-----4-|-3---------------|-3-------------3-|
   1 + 2 + 3 + 4 +   1 + 2 +   1 + 2 + 3 + 4 +   1 + 2 + 3 + 4 +

G|-----------------|---------|-----------------|-----------------|
D|---------------5-|---------|-----------------|-----------------|
A|-----------------|---------|-3-------------3-|-3-------------3-|
E|-3---------------|-3-------|-----------------|-----------------|
   1 + 2 + 3 + 4 +   1 + 2 +   1 + 2 + 3 + 4 +   1 + 2 + 3 + 4 +

G|-----------------|---------|-----------------|-----------------|
D|-----------------|---------|-----------------|-----------------|
A|-3-------------3-|-3-----3-|-1-------------1-|-1-------------1-|
E|-----------------|---------|-----------------|-----------------|
   1 + 2 + 3 + 4 +   1 + 2 +   1 + 2 + 3 + 4 +   1 + 2 + 3 + 4 +

G|---------------3-|-3---------------|-----------------|-----------------|
D|-----------------|---------0-------|-1-------------1-|-1---------------|
A|-1---------------|-----------------|-----------------|---------------1-|
E|-----------------|-----------------|-----------------|-----------------|
   1 + 2 + 3 + 4 +   1 + 2 + 3 + 4 +   1 + 2 + 3 + 4 +   1 + 2 + 3 + 4 +


[CHORUS 1]

G|-----------------|-----------------|---------------3-|-3---------------|
D|-1---------------|-1------------1--|-----------------|-----------------|
A|---------------1-|-----------------|-1---------------|---------------1-|
E|-----------------|-----------------|-----------------|-----------------|
   1 + 2 + 3 + 4 +   1 + 2 + 3 + 4 +   1 + 2 + 3 + 4 +   1 + 2 + 3 + 4 +

G|-----------------|-----------------|-----------------|---------------0-|
D|-----------------|-----------------|-1-------------1-|-1---------------|
A|-1-------------1-|-1-------------1-|-----------------|-----------------|
E|-----------------|-----------------|-----------------|-----------------|
   1 + 2 + 3 + 4 +   1 + 2 + 3 + 4 +   1 + 2 + 3 + 4 +   1 + 2 + 3 + 4 +

G|-1-------------1-|-0-------------0-|-----------------|-----------------|
D|-----------------|-----------------|-3---------------|-3---------------|
A|-----------------|-----------------|---------------3-|---------------3-|
E|-----------------|-----------------|-----------------|-----------------|
   1 + 2 + 3 + 4 +   1 + 2 + 3 + 4 +   1 + 2 + 3 + 4 +   1 + 2 + 3 + 4 +

G|-----------------|---------|-----------------|-----------------|
D|-3-------------3-|-0-----0-|-----------------|-----------------|
A|-----------------|---------|-----------------|---------------3-|
E|-----------------|---------|-3-------------3-|-3---------------|
   1 + 2 + 3 + 4 +   1 + 2 +   1 + 2 + 3 + 4 +   1 + 2 + 3 + 4 +


[INTERLUDE 1]
G|-----------------|-----------------|
D|-----------------|-----------------|
A|-3-------------3-|-3-------------3-|
E|-----------------|-----------------|
   1 + 2 + 3 + 4 +   1 + 2 + 3 + 4 +


[VERSE 2]

G|-----------5-----|---------|-----------------|-----------------|
D|-----------------|---------|-----------5-----|-----------------|
A|-3-------------3-|-3-------|-----------------|-----------------|
E|-----------------|---------|-3-------------3-|-3-------------3-|
   1 + 2 + 3 + 4 +   1 + 2 +   1 + 2 + 3 + 4 +   1 + 2 + 3 + 4 +

G|-----------------|---------|-----------------|-----------------|
D|---------------5-|---------|-----------------|-----------------|
A|-----------------|-----2---|-3-------------3-|-3-------------3-|
E|-3---------------|-3-------|-----------------|-----------------|
   1 + 2 + 3 + 4 +   1 + 2 +   1 + 2 + 3 + 4 +   1 + 2 + 3 + 4 +

G|-----------------|---------|-----------------|-----------------|
D|-----------------|-------0-|-----------------|-----------------|
A|-3-------------3-|-3-------|-1-------------1-|-1-------------1-|
E|-----------------|---------|-----------------|-----------------|
   1 + 2 + 3 + 4 +   1 + 2 +   1 + 2 + 3 + 4 +   1 + 2 + 3 + 4 +

G|-----------------|-----------------|-----------------|-----------------|
D|-----------------|-------------0---|-1---------------|-1---------------|
A|-1-------------1-|-1---------------|---------------1-|---------------1-|
E|-----------------|-----------------|-----------------|-----------------|
   1 + 2 + 3 + 4 +   1 + 2 + 3 + 4 +   1 + 2 + 3 + 4 +   1 + 2 + 3 + 4 +


[CHORUS 2]

G|-----------------|-----------------|-----------------|-----------------|
D|-1---------------|-1-------------1-|-----------------|-----------------|
A|---------------1-|-----------------|-1-------------1-|-1-------------1-|
E|-----------------|-----------------|-----------------|-----------------|
   1 + 2 + 3 + 4 +   1 + 2 + 3 + 4 +   1 + 2 + 3 + 4 +   1 + 2 + 3 + 4 +

G|-----------------|-----------------|-----------------|-----------------|
D|-----------------|-----------------|-1---------------|-1-------------1-|
A|-1-------------1-|-1-------------1-|---------------1-|-----------------|
E|-----------------|-----------------|-----------------|-----------------|
   1 + 2 + 3 + 4 +   1 + 2 + 3 + 4 +   1 + 2 + 3 + 4 +   1 + 2 + 3 + 4 +

G|-1-------------1-|-0-------------0-|-----------------|-----------------|
D|-----------------|-----------------|-3---------------|-3---------------|
A|-----------------|-----------------|---------------3-|---------------3-|
E|-----------------|-----------------|-----------------|-----------------|
   1 + 2 + 3 + 4 +   1 + 2 + 3 + 4 +   1 + 2 + 3 + 4 +   1 + 2 + 3 + 4 +

G|-----------------|---------|-----------------|-----------------|
D|-----------------|-0-----0-|-----------------|-----------------|
A|-----------------|---------|-----------------|---------------3-|
E|-1-------------1-|---------|-3-------------3-|-3---------------|
   1 + 2 + 3 + 4 +   1 + 2 +   1 + 2 + 3 + 4 +   1 + 2 + 3 + 4 +


-[VOCAL SOLO 1]-

G|-------------5---|-------------5---|-------------4---|-------------4---|
D|-----------------|-----------------|-----------------|-----------------|
A|-3-------------3-|-3-------------2-|-2-------------2-|-2---------------|
E|-----------------|-----------------|-----------------|---------------4-|
   1 + 2 + 3 + 4 +   1 + 2 + 3 + 4 +   1 + 2 + 3 + 4 +   1 + 2 + 3 + 4 +

G|-----------------|-----------------|-------------5---|-------------5---|
D|-------------6---|-------------5---|-----------------|-----------------|
A|-----------------|-----------------|-3-------------3-|-3-------------3-|
E|-4-------------4-|-3-------------3-|-----------------|-----------------|
   1 + 2 + 3 + 4 +   1 + 2 + 3 + 4 +   1 + 2 + 3 + 4 +   1 + 2 + 3 + 4 +

G|-------------2---|-------------2---|-----------------|-----------------|
D|-----------------|-----------------|-------------5---|-------------5---|
A|-0-------------0-|-0-------------0-|-----------------|-----------------|
E|-----------------|-----------------|-3-------------3-|-3-------------3-|
   1 + 2 + 3 + 4 +   1 + 2 + 3 + 4 +   1 + 2 + 3 + 4 +   1 + 2 + 3 + 4 +

G|-----------------|-----------------|
D|-------------5---|-----------------|
A|-----------------|---------------3-|
E|-3-------------3-|-3---------------|
   1 + 2 + 3 + 4 +   1 + 2 + 3 + 4 + 


[INTERLUDE 2]

G|-----------------|-----------------|
D|-----------------|-----------------|
A|-3---------------|---------------3-|
E|-----------------|-----------------|
   1 + 2 + 3 + 4 +   1 + 2 + 3 + 4 + 


[VERSE 3]

G|-----------------|---------|-----------------|-----------------|
D|-----------------|---------|-----------5-----|-----------------|
A|-3-------------3-|---------|-----------------|-----------------|
E|-----------------|-4-----4-|-3-------------3-|-3-------------3-|
   1 + 2 + 3 + 4 +   1 + 2 +   1 + 2 + 3 + 4 +   1 + 2 + 3 + 4 +

G|-----------------|---------|-----------------|-----------------|
D|-----------------|---------|-----------------|-----------------|
A|-----------------|-----2---|-3-------------3-|-3---------------|
E|-3-------------3-|-3-------|-----------------|---------------3-|
   1 + 2 + 3 + 4 +   1 + 2 +   1 + 2 + 3 + 4 +   1 + 2 + 3 + 4 +

G|-----------------|---------|-----------------|-----------------|
D|-----------------|---------|-----------------|-----------------|
A|-3-------------3-|-3-------|-1-------------1-|-1-------------1-|
E|-----------------|---------|-----------------|-----------------|
   1 + 2 + 3 + 4 +   1 + 2 +   1 + 2 + 3 + 4 +   1 + 2 + 3 + 4 +

G|-----------------|-----------------|-----------------|-----------------|
D|-----------------|-----------------|-1---------------|-1---------------|
A|-1-------------1-|-1-------------1-|---------------1-|---------------1-|
E|-----------------|-----------------|-----------------|-----------------|
   1 + 2 + 3 + 4 +   1 + 2 + 3 + 4 +   1 + 2 + 3 + 4 +   1 + 2 + 3 + 4 +


[CHORUS 3]

G|-----------------|-----------------|-----------------|-----------------|
D|-1-------------1-|-1-------------1-|-----------------|-----------------|
A|-----------------|-----------------|-1---------------|-1-------------1-|
E|-----------------|-----------------|---------------1-|-----------------|
   1 + 2 + 3 + 4 +   1 + 2 + 3 + 4 +   1 + 2 + 3 + 4 +   1 + 2 + 3 + 4 +

G|-----------------|-----------------|-----------------|-----------------|
D|-----------------|-------------0---|-1---------------|-1---------------|
A|-1-------------1-|-1---------------|---------------1-|-----------------|
E|-----------------|-----------------|-----------------|-------------3---|
   1 + 2 + 3 + 4 +   1 + 2 + 3 + 4 +   1 + 2 + 3 + 4 +   1 + 2 + 3 + 4 +

G|---------------1-|-0-------------0-|-----------------|-----------------|
D|-----------------|-----------------|-3---------------|-3---------------|
A|-----------------|-----------------|---------------3-|---------------3-|
E|-4---------------|-----------------|-----------------|-----------------|
   1 + 2 + 3 + 4 +   1 + 2 + 3 + 4 +   1 + 2 + 3 + 4 +   1 + 2 + 3 + 4 +

G|-----------------|---------|-----------------|-----------------|
D|-3---------------|-0-----0-|-----------------|-----------------|
A|-----------------|---------|-----------------|---------------3-|
E|---------------1-|---------|-3-------------3-|-3---------------|
   1 + 2 + 3 + 4 +   1 + 2 +   1 + 2 + 3 + 4 +   1 + 2 + 3 + 4 +


(prolongation)

G|-----------------|-----------------|
D|-----------------|-----------------|
A|-3-------------3-|-3---------------|
E|-----------------|-----------------|
   1 + 2 + 3 + 4 +   1 + 2 + 3 + 4 +

G|-----------------|---------------0-|-----------------|-----------------|
D|-----------------|-----------------|-3-------------3-|---------------3-|
A|-----------------|-----------------|-----------------|-----------------|
E|-4-------------4-|-3---------------|-----------------|-1---------------|
   1 + 2 + 3 + 4 +   1 + 2 + 3 + 4 +   1 + 2 + 3 + 4 +   1 + 2 + 3 + 4 +

G|-----------------|---------|-----------------|-----------------|
D|---------------3-|-0-----0-|-----------------|-----------------|
A|-----------------|---------|-----------------|---------------3-|
E|-1---------------|---------|-3-------------3-|-3---------------|
   1 + 2 + 3 + 4 +   1 + 2 +   1 + 2 + 3 + 4 +   1 + 2 + 3 + 4 +


[VOCAL SOLO 2]

G|-------------5---|-------------5---|-------------4---|-------------4---|
D|-----------------|-----------------|-----------------|---------------6-|
A|-3-------------3-|-3-------------2-|-2-------------2-|-2---------------|
E|-----------------|-----------------|-----------------|-----------------|
   1 + 2 + 3 + 4 +   1 + 2 + 3 + 4 +   1 + 2 + 3 + 4 +   1 + 2 + 3 + 4 +

G|-----------------|-----------------|-------------5---|-------------5---|
D|-------------6---|-------------5---|-----------------|-----------------|
A|-----------------|---------------3-|-3-------------3-|-3-------------3-|
E|-4-------------4-|-3---------------|-----------------|-----------------|
   1 + 2 + 3 + 4 +   1 + 2 + 3 + 4 +   1 + 2 + 3 + 4 +   1 + 2 + 3 + 4 +

G|-------------2---|-------------2---|-----------------|-----------------|
D|-----------------|-----------------|-------------5---|-------------5---|
A|-0-------------0-|-0-------------0-|-----------------|-----------------|
E|-----------------|-----------------|-3-------------3-|-3-------------3-|
   1 + 2 + 3 + 4 +   1 + 2 + 3 + 4 +   1 + 2 + 3 + 4 +   1 + 2 + 3 + 4 +

G|-----------------|-----------------|
D|-------------5---|-------------5---|
A|-----------------|-----------------|
E|-3-------------3-|-3-------------3-|
   1 + 2 + 3 + 4 +   1 + 2 + 3 + 4 + 


(second time around)

G|-------------5---|-------------5---|-------------4---|-------------4---|
D|-----------------|-----------------|-----------------|-----------------|
A|-3-------------3-|-3-------------2-|-2-------------2-|-2---------------|
E|-----------------|-----------------|-----------------|---------------4-|
   1 + 2 + 3 + 4 +   1 + 2 + 3 + 4 +   1 + 2 + 3 + 4 +   1 + 2 + 3 + 4 +

G|-----------------|-----------------|-------------5---|-------------5---|
D|-------------6---|-------------5---|-----------------|-----------------|
A|-----------------|-----------------|-3-------------3-|-3-------------3-|
E|-4-------------4-|-3-------------3-|-----------------|-----------------|
   1 + 2 + 3 + 4 +   1 + 2 + 3 + 4 +   1 + 2 + 3 + 4 +   1 + 2 + 3 + 4 +

G|-------------2---|-------------2---|-----------------|-----------------|
D|-----------------|-----------------|-------------5---|-------------5---|
A|-0-------------0-|-0-------------0-|-----------------|-----------------|
E|-----------------|-----------------|-3-------------3-|-3-------------3-|
   1 + 2 + 3 + 4 +   1 + 2 + 3 + 4 +   1 + 2 + 3 + 4 +   1 + 2 + 3 + 4 +

G|-----------------|-----------------|
D|-------------5---|-------------5---|
A|-----------------|-----------------|
E|-3-------------3-|-3-------------3-|
   1 + 2 + 3 + 4 +   1 + 2 + 3 + 4 + 


[OUTRO] (to fade, 3+x)

G|-------------5---|-------------5---|
D|-----------------|-----------------|
A|-3-------------3-|-3-------------3-|
E|-----------------|-----------------|
   1 + 2 + 3 + 4 +   1 + 2 + 3 + 4 + 

            
            
Suggest correction
Creating personal tab
Creating personal tab
You can edit any tab online and save it as your Personal.

You can edit, replace or remove any tab part or add personal notes – all changes will be seen only by you.

Personal tabs can be accessed anytime from any device, even offline.
Learn more »
Give kudos to tab author, rate the tab!
1 2 3 4 5
comments
print report bad tab
guest
You may want to rate the tab now too:
select rating
Wanna post a correction for this tab? Suggest correction