Oops, an error
Loading. Please wait.

Shiosai tab

version 1
version 1

Whole song

983 views 1 this week
7 commentsread comments
1 2 3 4 5
x 3
add to favorites
×
Save as Personal and add changes to this tab that will be seen only by you. Learn more ›
×
You can save this tab as Personal to edit and correct it or add notes. All changes will be seen only by you. Learn more »
launch autoscroll
font size
0
reset
how to read this tab
guitar tuner
edit
Autoscroll
slow
fast
+/-
esc
set tempo
stop
-------------------------------------------------------------------------------
                             SHIOSAI - Abingdon Boys School
-------------------------------------------------------------------------------
Tabbed by: Zakk123

Tuning:Drop D (DADGBE)


************************************
| U   Strum UP
| D   Strum DOWN
| N.H Natural Harmonic
| /   slide up
| \   slide down
| h   hammer-on
| p   pull-off
| ~   vibrato
| +   harmonic
| x   Mute note
| b   Bend
| pb  Pre-bend
| br  Bend release
| pbr Pre-bend release
| brb Bend release bend

************************************

This is Hiroshi Shibasaki's part, not Sunao's, so listen close to the right guitar.

Listen to the song to get the correct strumming pattern down on the chords played 
during the chorus.

Edit: The chorus should be near 100% correct now.


Intro/Chorus

e|----------------------------|
B|----------------------------|
G|----------------------------|
D|---4-444-44----4-444-45-----| X3
A|---2-222-22----2-222-22-----|
D|---2-222-22----2-222-22-----|
     
e|----------------------------|
B|----------------------------|
G|----------------------------|
D|---4-444-44-----44----------|
A|---2-222-22-----22----------|
D|---2-222-22-----22----------|
     
e|------------------------------------------------------------------------------|
B|------------------------------------------------------------------------------|
G|--555-4-5-7-5-4-5--222-2-2-7-5-4----------------------------------------------|
D|--555-4-5-7-5-4-5--000-0-0-7-5-4--79-79-7--7-7-9-9-9-9--2-2-2-5-5-22-2-2-4-5-7|
A|--333-2-3-5-3-2-3--000-0-0-5-3-2--79-79-7--7-7-9-9-9-9--2-2-2-----22-2-2-2-2-3|
D|-------------------000-0-0--------79-79-7--7-7-9-9-9-9--2-2-2-----22-2-2-2-2-3|
                                                          x x x     xx x x

e|-----------------------------------------------------------------------------|
B|-----------------------------------------------------------------------------|
G|--555-4-5-7-5-4-5--44-4-4---------------------------55-5-5--4---5------------|
D|--555-4-5-7-5-4-5--44-4-4--2--0----77-7-7-9-9-9-9\--55-5-5--4---5-----22-----|
A|--333-2-3-5-3-2-3--22-2-2--2--0----77-7-7-9-9-9-9\--33-3-3--2---3-----22-----|
D|---------------------------2--0----77-7-7-9-9-9-9\--------------3-----22-----|
                                                                        xx


Verse 1: Part 1 (Use delay on this bit. Listen very close to get the timing.)

e|---10-9-10---10-9-10------10-10-------------|
B|----------12---------12---------------------|
G|--------------------------------------------|
D|--------------------------------------------| x1
A|--------------------------------------------|
D|--------------------------------------------|

e|---10-9-10---10-9-10------------------------|
B|----------12---------12---------------------|
G|--------------------------12--12-12---------|
D|--------------------------------------------| x3
A|--------------------------------------------|
D|--------------------------------------------|

e|-14--14-10--10-12--12----------------14--14-10--10-12--12------------------|
B|---------------------12---10-12--12------------------------12--10-12-10-12-|
G|---------------------------------------------------------------------------|
D|---------------------------------------------------------------------------| x4
A|---------------------------------------------------------------------------|
D|---------------------------------------------------------------------------|


Verse 1: Part 2

e|-----------------------------------------------------------------------------|
B|-----------------------------------------------------------------------------|
G|-----------------------------------------5---5-5--5--55-5---4---4-4--4--44-7-|
D|--5-5--5---4-4--4-------4-4--4---/12\----5---5-5--5--55-5---4---4-4--4--44-7-|
A|--3-3--3---2-2--2-------2-2--2---/12\----3---3-3--3--33-3---2---2-2--2--22-5-|
D|--3-3--3---2-2--2-------2-2--2---/12\----3---3-3--3--33-3---2---2-2--2--22---|
    x x  x   x x  x       x x  x               x x  x  xx         x x  x  xx 
e|-------------------------------------------------|
B|------------------------------xx-x---------------|
G|------------44444444--4-4-----xx-x---------------|
D|--3--5--7---44444444--4-4-----xx-x---------------|
A|--3--3--3---22222222--2-2-----xx-x---------------|
D|--3--3--3---------------------xx-x---------------|
              xxxxxxxx


Chorus 2

e|------------------------------------------------------------------------------|
B|------------------------------------------------------------------------------|
G|--555-4-5-7-5-4-5--222-2-2-7-5-4----------------------------------------------|
D|--555-4-5-7-5-4-5--000-0-0-7-5-4--79-79-7--7-7-9-9-9-9--2-2-2-5-5-22-2-2-4-5-7|
A|--333-2-3-5-3-2-3--000-0-0-5-3-2--79-79-7--7-7-9-9-9-9--2-2-2-----22-2-2-2-2-3|
D|-------------------000-0-0--------79-79-7--7-7-9-9-9-9--2-2-2-----22-2-2-2-2-3|
                                                          x x x     xx x x

e|---------------------------------------------------------------------------|
B|---------------------------------------------------------------------------|
G|--555-4-5-7-5-4-5--44-4-4---------------------------55-5-5--4---5----------|
D|--555-4-5-7-5-4-5--44-4-4--2--0----77-7-7-9-9-9-9\--55-5-5--4---5----------|
A|--333-2-3-5-3-2-3--22-2-2--2--0----77-7-7-9-9-9-9\--33-3-3--2---3----------|
D|---------------------------2--0----77-7-7-9-9-9-9\--------------3----------|
                                                                        


Verse 2: Part 1
e|----7-7--7-7-----------------|
B|----7-7--7-7-----------------|
G|----7h9--7-9-----------------|
D|----9-9--9-9-----------------| x4
A|-----------------------------| 
D|-----------------------------| 

Verse 2: Part 2
e|---------------------------------------|
B|---------------------------------------|
G|---------------------------------------|
D|---------5------4--------2-------------| x4
A|-----0-2------0------0-2---------------|
D|--2---------2------2-------------------| 


Verse 2: Part 3 Solo (Credit goes to theoryspace for the solo)
E|-------------------|----------------------------------------|----|
B|-------8--7--------|------------------------------------7-8-|-7--|
G|--9---------9-7----|--------------------------------7-9-----|----|
D|----------------10-|-9-7---------------7--9-7-9-10----------|----|
A|-------------------|-----10-9--10-9-10----------------------|----|
D|-------------------|----------------------------------------|----|

E|-----------------|-----------------------7----------------|-----------|--------7----|
B|-----------------|---------------7-8--10---10-8--7--------|------8----|--10---------|
G|-----------------|-----------7-9-------------------9-7----|-----------|-------------|
D|--------7------7-|-9-7-9-10----------------------------10-|-9---------|-------------|
A|--9-10----9-10---|----------------------------------------|-----------|-------------|
D|-----------------|----------------------------------------|-----------|-------------|

E|---------------------7-------------7-8--|--7--------7---10-7--------7-----------|-------|
B|--7----------7-8-10--------7--8-10------|----8-7-8----8-------8-7-8----8-7-8-7--|-------|
G|--------7--9-----------7-9--------------|---------------------------------------|--9----|
D|----7-9---------------------------------|---------------------------------------|-------|
A|----------------------------------------|---------------------------------------|-------|
D|----------------------------------------|---------------------------------------|-------|

E|---------------|-----------------------------------------|--------10----|----------------|
B|--8--7---------|------------------------------------7-8--|--10----------|--7~------7-----|
G|-------9-7-----|--------------------------------7-9------|--------------|-------9-----7--|
D|-----------10--|--9-7--------------7--9-7-9-10-----------|--------------|----------------|
A|---------------|------10-9--7-9-10-----------------------|--------------|----------------|
D|---------------|-----------------------------------------|--------------|----------------|

E|-----------------------------------7-|-8---------7-8-10--12--|-/14----12--------------|
B|-------8---------8-10---------8-10---|------8-10-------------|------------------------|
G|--9-10------9-10---------9-10--------|-----------------------|--------------14-14/16--|
D|-------------------------------------|-----------------------|------------------------|
A|-------------------------------------|-----------------------|------------------------|
D|-------------------------------------|-----------------------|------------------------|


Chorus 3
e|------------------------------------------------------------------------------|
B|------------------------------------------------------------------------------|
G|--555-4-5-7-5-4-5--222-2-2-7-5-4----------------------------------------------|
D|--555-4-5-7-5-4-5--000-0-0-7-5-4--79-79-7--7-7-9-9-9-9--2-2-2-5-5-22-2-2-4-5-7|
A|--333-2-3-5-3-2-3--000-0-0-5-3-2--79-79-7--7-7-9-9-9-9--2-2-2-----22-2-2-2-2-3|
D|-------------------000-0-0--------79-79-7--7-7-9-9-9-9--2-2-2-----22-2-2-2-2-3|
                                                          x x x     xx x x

e|----------------------------------------------------------------|
B|----------------------------------------------------------------|
G|--555-4-5-7-5-4-5--44-4-4---------------------------55-5-5--4---|
D|--555-4-5-7-5-4-5--44-4-4--2--0----77-7-7-9-9-9-9\--55-5-5--4---|
A|--333-2-3-5-3-2-3--22-2-2--2--0----77-7-7-9-9-9-9\--33-3-3--2---|
D|---------------------------2--0----77-7-7-9-9-9-9\--------------|
                                                                        


Breakdown/Climax @ 2:57
e|----------------------------------------------------------------------|
B|----------------------------------------------------------------------|
G|-5-5-5/7-7-7-7/9-9/12-12-12-12-12-------------------------------------|
D|-x-x-x/x-x-x-x/x-x/x--x--x--x--x--------------------------------------|
A|-3-3-3/5-5-5-5/7-7/10-10-10-10-10--------------5-7---3-5---888--------|
D|------------------------------------0-22-0-3-0-----0-----0------------|

(Note:The guitar here pans right and left on the last note)
e|----------------------------------------------------------------------|
B|----------------------------------------------------------------------|
G|-5-5-5/7-7-7-7/9-9/12-12-12-12-12-------------------------------------|
D|-x-x-x/x-x-x-x/x-x/x--x--x--x--x--------------------------------------| 
A|-3-3-3/5-5-5-5/7-7/10-10-10-10-10--------------5-7---3-5---888--------| 
D|------------------------------------0-22-0-3-0-----0-----0------------|


e|----------------------------------------------------------------------|
B|----------------------------------------------------------------------|
G|-5-5-5/7-7-7-7/9-9/12-12-12-12-12-------------------------------------|
D|-x-x-x/x-x-x-x/x-x/x--x--x--x--x--------------------------------------|
A|-3-3-3/5-5-5-5/7-7/10-10-10-10-10--------------5-7---3-5--------------|
D|------------------------------------0-22-0-3-0-----0-----0--333-------|
                                                              N.H

Now headbang! @ 3:14
e|--------------------------------------|
B|--------------------------------------|
G|--------------------------------------|
D|--------------------------------------| x3
A|-------------5-7---3-5---888----------| 
D|--0-22-0-3-0-----0-----0--------------| 

e|--------------------------------------|
B|--------------------------------------|
G|--------------------------------------|
D|--------------------------------------| x1
A|-------------5-7---3-5---8888---------| 
D|--0-22-0-3-0-----0-----0--------------| 


Right before the Final Chorus
e|------------|
B|------------|
G|------------|
D|--7--9-9----|
A|--7--9-9----|
D|--7--9-9----|

Final Chorus
e|------------------------------------------------------------------------------|
B|------------------------------------------------------------------------------|
G|--555-4-5-7-5-4-5--222-2-2-7-5-4----------------------------------------------|
D|--555-4-5-7-5-4-5--000-0-0-7-5-4--79-79-7--7-7-9-9-9-9--2-2-2-5-5-22-2-2-4-5-7|
A|--333-2-3-5-3-2-3--000-0-0-5-3-2--79-79-7--7-7-9-9-9-9--2-2-2-----22-2-2-2-2-3|
D|-------------------000-0-0--------79-79-7--7-7-9-9-9-9--2-2-2-----22-2-2-2-2-3|
                                                          x x x     xx x x

e|-------------------------------------------------------------------------|
B|-------------------------------------------------------------------------|
G|--555-4-5-7-5-4-5--44-4-4---------------------------55-5-5--4--4-4-4-----|
D|--555-4-5-7-5-4-5--44-4-4--2--0----77-7-7-9-9-9-9\--55-5-5--4--4-4-4-----|
A|--333-2-3-5-3-2-3--22-2-2--2--0----77-7-7-9-9-9-9\--33-3-3--2--2-2-2-----|
D|---------------------------2--0----77-7-7-9-9-9-9\-----------------------|
                                                                        
e|----------------------------------------------------|
B|----------------------------------------------------|
G|------------------- -55-5-5----------5--------------|
D|---77-7-7--9-9-9-9\--55-5-5---0------5--------------|
A|---77-7-7--9-9-9-9\--33-3-3---0------3--------------|
D|---77-7-7--9-9-9-9\-----------0------3--------------|
       

Outro
e|---------------------------------------------------------------------------|
B|---------------------------------------------------------------------------|
G|---------------------------------------------------------------------------|
D|-4-4------4-4---4-4------4-5---4-4------4-4---4-4------4-5---4-------------|
A|-2-2------2-2---2-2------2-2---2-2------2-2---2-2------2-2---2-------------|
D|-2-2-2222-2-2---2-2-2222-2-2---2-2-2222-2-2---2-2-2222-2-2---2-------------|
   U U XXXX D U   U U xxxx D U   U U xxxx D U   U U xxxx D U   X

That's it! I hope you enjoyed this tab!
If you would like me to tab out anymore songs by Abingdon Boys School send me a message!

            
            
Suggest correction
Creating personal tab
Creating personal tab
You can edit any tab online and save it as your Personal.

You can edit, replace or remove any tab part or add personal notes – all changes will be seen only by you.

Personal tabs can be accessed anytime from any device, even offline.
Learn more »
Give kudos to tab author, rate the tab!
1 2 3 4 5
comments
print report bad tab
7 comments total. Showing first comments.
0 reply
zakk123 51 Nov 14, 2011 12:07 PM

Verse 2: Part 2 I wrote down wrong so here is the correct notes.
e|---------------------------------------|
B|---------------------------------------|
G|---------------------------------------|
D|---------5------4--------2-------------| x4
A|-----0-2------0------0-2---------------|
D|--2---------2------2-------------------|

I'm updating the tab for this part but it will take a few days to get corrected.
Sorry about that.

0 reply
theoryspace 22 Nov 14, 2011 01:51 PM

Great work! Thanks for completing the. You know, I tabbed the solo, but I still couldn't play it at full speed.... takes a lot of hard work and practice...

Anyways, I thought 3:00-3:25 will sound more accurate if it is played this way. See if you think so:

e|--------------------------------------|
B|--------------------------------------|
G|--------------------------------------|
D|--------------------------------------|
A|--------------------------------------|
D|--0-22-0-3-0-12-14-0-10-12-0-15-15-15-|

0 reply
zakk123 51 Nov 14, 2011 02:30 PM

Thanks man. Great job on picking that out, I too would agree with you except I do believe that they play the higher notes on the A string.

e|--------------------------------------|
B|--------------------------------------|
G|--------------------------------------|
D|--------------------------------------|
A|-------------5-7---3-5---777----------|
D|--0-22-0-3-0-----0-----0--------------|

http://www.youtube.com/watch?v=5VPvE9oq79M&feature=results_main&playnext=1&list=PLDA391DF7A0452DD6
Watch close @ 3:05
He doesn't play up to the 12th fret.
What do you think?

guest
You may want to rate the tab now too:
select rating
Wanna post a correction for this tab? Suggest correction