Oops, an error
Loading. Please wait.

Strength bass

version 1
version 1

Whole song

Interactive

1,344 views 1 this week
no commentswrite comment
1 2 3 4 5
3 more votes to show rating
add to favorites
×
Save as Personal and add changes to this tab that will be seen only by you. Learn more ›
×
You can save this tab as Personal to edit and correct it or add notes. All changes will be seen only by you. Learn more »
launch autoscroll
font size
0
reset
guitar tuner
edit
Autoscroll
slow
fast
+/-
esc
set tempo
stop
Abingdon Boys School - Strength.

Tabbed by: XxThreeCheersxX
E-mail: phantomhiveghost@gmail.com

Tuning: DGCF

This was a very difficult song to tab, there are a lot of fills, but I think I got all of them.

Intro I
F|--------|
C|--------|
G|--------| x 4
D|-0-0--0-|

F|----------|
C|----------|
G|-77777777-|
D|----------|


Intro II (note: those are 14's)
F|----------------------------------------------------------------------------------|
C|----------------------------------------------------------------------------------|
G|-7-77-777-3-33-333-5-55-555-2-22-222-3-333-333-333-220-000-00-2/14-141414141414---|
D|----------------------------------------------------------------------------------|

F|----------------------------------------------------------------------------|
C|----------------------------------------------------------------------------|
G|----------33333333-55555555-22222222-33-333-333-333-22-00-000-022-222-14\7--|
D|-00000000-------------------------------------------------------------------|

F|----------|
C|----------| 
G|-2/7~-----|
D|----------|

Verse I 
F|--------------------------------------------------------------------------------|
C|--------------------------------5-4-5---------------5-4-5---------------5-4-----|
G|-7-5--------7-5---5-7-5-------7-------5-3-3-5-3---7-------5-3-3-2-3---7-----5---|
D|-----7-0--------7-------0-------------------------------------------------------|

F|---------------------------------------------------------------------------------|
C|--------------------------------5-4-5---------------5-4-5------------------------|
G|-7-5--------7-5---5-7-5-------7-------5-3-3-5-3---7-------5-5-5---5----55555555--|
D|-----7-0--------7-------0---------------------------------------5----------------|

Prechorus
F|--------------------------------------------------------------------------|
C|--------------------------------------------------------------------545---|
G|-3333333--3333333---55555553-55535535-2222222--22203323-77777775-775---52-|
D|--------3--------3---------------------------2----------------------------|

F|--------------------------------------------------------------------|
C|--------------------------------------------------------25545-------|
G|-3333333--3333333---55555553-55535535-222222--22203323-2-----5775---|
D|--------3--------3--------------------------2--------------------0--|

Chorus (note: those are 12's)
F|----------------------------------------------------------------------|
C|----------------------------------------------------------------------|
G|----------33333333-55555555-22222222-33-333-322-222/14----------------|
D|-00000000-----------------------------------------------0-2-3-5-6-7---|

F|---------------------------------------------------------------------9979------|
C|-----------------12------------------------------------------------------97----|
G|-33333333-5535-12--12-22222222-77755533------------------------------------9---|
D|---------------------------------------5-5555555-5-5555553-7-777777------------|

F|----------------------------------------------S|
C|----------------------------------------------T|
G|----------------------------------------------O|
D|-55555555-55555555-88888888-1010101010101010--P|

Verse (same as before)

Prechorus (slight variation)
F|--------------------------------------------------------------------------|
C|-------------------------------------------------------------------545----|
G|-3333333--3333333---55555553-55535535-2222222--22203323-77777775-775---52-|
D|--------3--------3---------------------------2----------------------------|

F|--------------------------------------------------4444----------------|
C|---------------------------------------------------------25545--------|
G|-3333333--3333333---55555553-55535535-222222--2222-----2------5775----|
D|--------3--------3--------------------------2----------------------0--|

Chorus (same as before)

Guitar Solo
F|--------------------------------------------------------------------------|
C|--------------------------------------------------------------------------|
G|--------------------------------------------------------------------------|
D|-00000000-00000000-22222222-222222222-33333333-33333333-55555555-5555553--|

F|--------------------------------------------------------------------4------S|
C|---------------------------------------------------------------------------T|
G|---------------------------------------------------------------------------O|
D|-00-000-000-000-022-222-222-222-233-333-333-333-355-555-555-555-5-0---0-2--P|

Bridge

F|-------------------------------------------------------|
C|-------5/10------------------------------2/99999999\2--|
G|-------------10-10\3/5---5-5--5-----2------------------|
D|-3/8~-------------------5-5----5-5-2-------------------|

Final chorus

F|----------------------------------------------------------------------|
C|----------------------------------------------------------------------|
G|----------33333333-55555555-22222222-33-333-322-222/14----------------|
D|-00000000-----------------------------------------------0-2-3-5-6-7---|

F|---------------------------------------------------------------------9979-----|
C|-----------------12------------------------------------------------------97---|
G|-33333333-5535-12--12-33333333-77755533------------------------------------9--|
D|---------------------------------------5-55555555-5-5555553-7-777777----------|

F|---------------------------------------------|
C|-----------------------77991111121214141212--|
G|-------------------7799----------------------|
D|-55555555-55555555---------------------------|

F|----------------------------------------------|
C|----------------------------------------------|
G|----------------------------------------------|
D|-55555555-55555535-88888888-1010101010101010\-|

Outro (same as intro II)

End with:

F|-------------------------|
C|-------------------------|
G|-------------------------| 
D|-0-0--0-----0-0--0-----00|

Happy playing and good luck!
It's a tricky song, but don't give up.

            
            
Suggest correction
Creating personal tab
Creating personal tab
You can edit any tab online and save it as your Personal.

You can edit, replace or remove any tab part or add personal notes – all changes will be seen only by you.

Personal tabs can be accessed anytime from any device, even offline.
Learn more »
Give kudos to tab author, rate the tab!
1 2 3 4 5
comments
print report bad tab
guest
You may want to rate the tab now too:
select rating
Wanna post a correction for this tab? Suggest correction