Oops, an error
Loading. Please wait.

Mournful Serenade tab

320 views 1 this week
no commentswrite comment
1 2 3 4 5
3 more votes to show rating
add to favorites
×
Save as Personal and add changes to this tab that will be seen only by you. Learn more ›
×
You can save this tab as Personal to edit and correct it or add notes. All changes will be seen only by you. Learn more »
launch autoscroll
font size
0
reset
how to read this tab
guitar tuner
edit
Autoscroll
slow
fast
+/-
esc
set tempo
stop
ABLAZE MY SORROW-Mournful Serenade
The Plague-1998
Copyright No Fashion Records
Transcribed by Justin Brabon
e-mail: glcometdude@hotmail.com


All corrections are welcome.

 " - tremolo
 / - slide down
 \ - slide up
 . - palm mute
 ~ - long sound
 x - rest
 p - pull off
 h - hammer on
 tr - trill
 () - ghost note, sustained note
 * - artificial harmonics
 b - bend

 Tuning from low to high: D G C F A D

================================

 Intro            x3                        x1
|-------------------|   |---------------------|
|-------------------|   |---------------------|
|-------------------|   |---------------------|
|------3-----3----3-|   |------3--------------|
|------1-----1----1-|   |------1----5-4-3-2---|
|-0000---000---00---|   |-0000---00-3-2-1-0---|


 Clean break
|---------------------------------|
|---------------------------------|
|---------------------------------|
|-----2---2-----0-----5-------2---|
|---2---2---2-----2-----2---2---2-|
|-0-----------0-----0-----0-------|



 Riff 1
|-----------------------------------------------|
|-----------------------------------------------|
|-----------------------------------------------|
|--------5-----4---------0-0-2-2--------5-----4-|
|-2------7-----5---------2-2-3-3-2------7-----5-|
|-0--0-0---0-0---0-0-0-0---------0--0-0---0-0---|
|
|-----------------------------------------------
|-----------------------------------------------|
|-----------------------------------------------|
|--------9-----7---------4-4-5-5--------9-----7-|
|-2------7-----5---------2-2-3-3-2------7-----5-|
|-0--0-0---0-0---0-0-0-0---------0--0-0---0-0---|

 End.        (1)                    (2)
|---------------|    |-----------------|
|---------------|    |-----------------|
|---------------|    |-----------------|
|---------------|    |---------5---4---|
|---------3-5-3-|    |-5-5-5-5-5---5---|
|-0-0-0-0-1-3-1-|    |-----------------|
|
|---------------|    |-----------------|
|---------------|    |-----------------|
|---------------|    |-----------------|
|---------------|    |---------5-4h5p4-|
|---------3-5-3-|    |-5-5-5-5---------|
|-0-0-0-0-1-3-1-|    |-----------------|



 Riff 2            x2
|--------------------|-----------------------------|
|--------------------|-----------------------------|
|-2------4------4----|-----------------------------|
|-4------4------4----|-2----2----2---2----2----2---|
|-0-0000-2-2222-2-22-|-3----3----3---0-00-0-00-0-0-|
|--------------------|-5-55-5-55-5-5---------------|

                   x2
|--------------------|-----------------------------|
|--------------------|-----------------------------|
|-2------4------4----|-----------------------------|
|-4------4------4----|-2----2----2---------2-0-----|
|-0-0000-2-2222-2-22-|-3----3----3---3"--------3-2-|
|--------------------|-5-55-5-55-5-5-5"------------|



 Riff 3
|---------------------------------|
|---------------------------------|
|-5-----4---------5-----4---------|
|-7-----7-----7---7-----7-----5-5-|
|---0-0---0-0-7-----0-0---0-0-----|
|---------------------------------|
|
|---------------------------------|
|-----------------------------5-5-|
|-5-----4---------5-----4---------|
|-7-----7-----7---7-----7---------|
|---0-0---0-0-7-----0-0---0-0-----|
|---------------------------------|

|-------------------------------|
|-------------------------------|
|-------------------------------|
|-5-----4-----------------------|
|-7-----7-----7-----------------|
|---0-0---0-0-7---0-2--3--2--0--|
|                 . .  .  .  .
|-------------------------------|
|-------------------------------|
|-------------------------------|
|-5-----4---------2-4--5--4--2--|
|-7-----7-----7---.-.--.--.--.--|
|---0-0---0-0-7-----------------|


 Riff 4
|---------------------------------------------|
|---------------------------------------------|
|---------------------------------------------|
|-7-9-7-5-5--7-9-7-5-5--4-5-4-4-4--2-4-2-1-1--|
|-9-9-9-7-7--9-9-9-7-7--5-5-5-5-5--2-2-2-2-2--|
|---------------------------------------------|
|
|---------------------------------------------|
|---------------------------------------------|
|---------------------------------------------|
|-7h9p7-5-5--7h9p7-5-5--4h5p4-4-4--2h4p2-1-1--|
|---------------------------------------------|
|---------------------------------------------|


 Ending chord
|-----------|
|-----------|
|-----------|
|-4-4-5-5---|
|-2-2-3-3-2-|
|---------0-|
|
|-----------|
|-----------|
|-----------|
|-0-0-2-2---|
|-2-2-3-3-2-|
|---------0-|

            
            
Suggest correction
Creating personal tab
Creating personal tab
You can edit any tab online and save it as your Personal.

You can edit, replace or remove any tab part or add personal notes – all changes will be seen only by you.

Personal tabs can be accessed anytime from any device, even offline.
Learn more »
Give kudos to tab author, rate the tab!
1 2 3 4 5
comments
print report bad tab
guest
You may want to rate the tab now too:
select rating
Wanna post a correction for this tab? Suggest correction