Oops, an error
Loading. Please wait.

Building Steam Tab

19 views 3 this week
no commentswrite comment
1 2 3 4 5
3 more votes to show rating
add to favorites
launch autoscroll
font size
0
reset
how to read this tab
guitar tuner
Autoscroll
slow
fast
+/-
esc
set tempo
stop
Help us to improve Ultimate-Guitar.com Take our survey!
×
Author
Tuning
D A D G B E
I couldn't find a tab for this song, so I set out to transpose the main parts into two guitars.
I have yet to figure out the whole of the solo, so for now I leave it open to interpretation and
improvisation.
(First public tab and all that, email me suggestions at obscurity.sane@gmail.com)

TUNING: DADGBe (Drop D)


[Intro]

Guitar 1
e|--------------------------------------------------------------------------------------------|
B|--------------------------------------------------------------------------------------------|
G|--7--7--7--7--9-9-9--8----------------------------------------------------------------------|
D|--7--7--7--7--9-9-9--8---------(X6)---------------------------------------------------------|
A|--7--7--7--7--7-7-7--6----------------------------------------------------------------------|
D|--7--7--7--7--x-x-x--x----------------------------------------------------------------------|

Guitar 2
e|--------------------------------------------------------------------------------------------|
B|--------------------------------------------------------------------------------------------|
G|--14--14--16--16--17------------------------------------------------------------------------|
D|----------------------15--15--15--15--14--------(X4)----------------------------------------|
A|--------------------------------------------------------------------------------------------|
D|--------------------------------------------------------------------------------------------|


[Verse]

I, I've suf-fered long enough in this ghost town
Guitar 1
e|----------------------------------------------------------------------------------------------|
B|----------------------------------------------------------------------------------------------|
G|----------------------------------------------------------------------7--7--7--7--10-10-10-9--|
D|----------------------------------------------------------------------7--7--7--7--10-10-10-9--|
A|----------------------------------------------------------------------7--7--7--7--8--8--8--7--|
D|----------------------------------------------------------------------7--7--7--7--x--x--x--x--|

Guitar 2
e|--------------------------------------------------------------------------------------------|
B|--------------------------------------------------------------------------------------------|
G|--------------------------------------------------------------------------------------------|
D|--------------------------------------------------------------------------------------------|
A|--------------------------------------------------------------------------------------------|
D|--------------------------------------------------------------------------------------------|


I saw the walls, called their bluff and took them down

Guitar 1
e|--------------------------------------------------------------------------------------------|
B|--------------------------------------------------------------------------------------------|
G|--7--7--7--7--10-10-10-9----------------------------------7--7--7--7--10-10-10-9----------------|
D|--7--7--7--7--10-10-10-9----------------------------------7--7--7--7--10-10-10-9----------------|
A|--7--7--7--7--8--8--8--7----------------------------------7--7--7--7--8--8--8--7----------------|
D|--7--7--7--7--x---x--x-x----------------------------------7--7--7--7--x--x--x--x----------------|

Guitar 2
e|--------------------------------------------------------------------------------------------|
B|--------------------------------------------------------------------------------------------|
G|--------------------------------------------------------------------------------------------|
D|--------------------------------------------------------------------------------------------|
A|--------------------------------------------------------------------------------------------|
D|--------------------------------------------------------------------------------------------|


When I think of all the time I've wasted... I, I've suffered enough in this ghost town

Guitar 1
e|---------------------------------------------------------------------------------------------------------|
B|---------------------------------------------------------------------------------------------------------|
G|--7--7--7--7--10-10-10-10---7--7--7--7--10-10-10-10---7--7--7--7--10-10-10-10---7--7--7--7--10-10-10-9---|
D|--7--7--7--7--10-10-10-10---7--7--7--7--10-10-10-10---7--7--7--7--10-10-10-10---7--7--7--7--10-10-10-9---|
A|--7--7--7--7--8--8--8--8----7--7--7--7--8--8--8--8----7--7--7--7--8--8--8--8----7--7--7--7--8--8--8--7---|
D|--7--7--7--7--x--x--x--x----7--7--7--7--x--x--x--x----7--7--7--7--x--x--x--x----7--7--7--7--x--x--x--x---|

Guitar 2
e|---------------------------------------------------------------------------------------------------------|
B|---------------------------------------------------------------------------------------------------------|
G|---------------------------------------------------------------------------------------------------------|
D|--7--7--7--7--3-3-3-2-------7--7--7--7--3-3-3-2-------7--7--7--7--3-3-3-2-------7--7--7--7--3-3-3-2------|
A|--7--7--7--7--3-3-3-2-------7--7--7--7--3-3-3-2-------7--7--7--7--3-3-3-2-------7--7--7--7--3-3-3-2------|
D|--7--7--7--7--3-3-3-2-------7--7--7--7--3-3-3-2-------7--7--7--7--3-3-3-2-------7--7--7--7--3-3-3-2------|


[Pre-Chorus]

Soon came a day under skies that were grey...Fueled my fires and I grabbed my pliers, and I'm lit!

Guitar 1
e|--------------------------------------------------------------------------------------------|
B|--------------------------------------------------------------------------------------------|
G|--------------------------------------------------------------------------------------------|
D|--7--7--9--10---3--3--3--2---------(X4)-----------------------------------------------------| 
A|--7--7--9--10---3--3--3--2------------------------------------------------------------------|
D|--7--7--9--10---3--3--3--2------------------------------------------------------------------|

Guitar 2
e|--------------------------------------------------------------------------------------------|
B|--------------------------------------------------------------------------------------------|
G|--------------------------------------------------------------------------------------------|
D|-----------------------------------(X4)-----------------------------------------------------|
A|--------------------------------------------------------------------------------------------|
D|--7--7--9--10---3--3--3--2------------------------------------------------------------------|


[Chorus]

I made my own machine; Yes, we're building steam; I hate the same routine

Guitar 1
e|--------------------------------------------------------------------------------------------|
B|--------------------------------------------------------------------------------------------|
G|--------------------------------------------------------------------------------------------|
D|--7--7--9--10---3--3--3--2----------------------(X4)----------------------------------------| 
A|--7--7--9--10---3--3--3--2------------------------------------------------------------------|
D|--7--7--9--10---3--3--3--2------------------------------------------------------------------|

Guitar 2
e|--------------------------------------------------------------------------------------------|
B|--------------------------------------------------------------------------------------------|
G|--14--14--16--16--17------------------------------------------------------------------------|
D|----------------------15--15--15--15--14--------(X4)----------------------------------------|
A|--------------------------------------------------------------------------------------------|
D|--------------------------------------------------------------------------------------------|


[Verse 2]

I, I never looked back, I never want to return
Guitar 1
e|--------------------------------------------------------------------------------------------|
B|--------------------------------------------------------------------------------------------|
G|--------------------------------------------------------------------7--7--7--7--10-10-10-9--|
D|--------------------------------------------------------------------7--7--7--7--10-10-10-9--|
A|--------------------------------------------------------------------7--7--7--7--8--8--8--7--|
D|--------------------------------------------------------------------7--7--7--7--x--x--x--x--|

Guitar 2
e|--------------------------------------------------------------------------------------------|
B|--------------------------------------------------------------------------------------------|
G|--------------------------------------------------------------------------------------------|
D|--------------------------------------------------------------------------------------------|
A|--------------------------------------------------------------------------------------------|
D|--------------------------------------------------------------------------------------------|


If I could find a fuse, those bridges would burn

Guitar 1
e|--------------------------------------------------------------------------------------------|
B|--------------------------------------------------------------------------------------------|
G|--7--7--7--7--10-10-10-9-------------------------------7--7--7--7--10-10-10-9---------------|
D|--7--7--7--7--10-10-10-9-------------------------------7--7--7--7--10-10-10-9---------------|
A|--7--7--7--7--8--8--8--7-------------------------------7--7--7--7--8--8--8--7---------------|
D|--7--7--7--7--x--x--x--x-------------------------------7--7--7--7--x--x--x--x---------------|

Guitar 2
e|--------------------------------------------------------------------------------------------|
B|--------------------------------------------------------------------------------------------|
G|--------------------------------------------------------------------------------------------|
D|--------------------------------------------------------------------------------------------|
A|--------------------------------------------------------------------------------------------|
D|--------------------------------------------------------------------------------------------|


But I keep this horse at a run... So I, I never looked back, I never want to return

Guitar 1
e|---------------------------------------------------------------------------------------------------------|
B|---------------------------------------------------------------------------------------------------------|
G|--7--7--7--7--10-10-10-10---7--7--7--7--10-10-10-10---7--7--7--7--10-10-10-10---7--7--7--7--10-10-10-10--|
D|--7--7--7--7--10-10-10-10---7--7--7--7--10-10-10-10---7--7--7--7--10-10-10-10---7--7--7--7--10-10-10-10--|
A|--7--7--7--7--8--8--8--8----7--7--7--7--8--8--8--8----7--7--7--7--8--8--8--8----7--7--7--7--8--8--8--8---|
D|--7--7--7--7--x--x--x--x----7--7--7--7--x--x--x--x----7--7--7--7--x--x--x--x----7--7--7--7--x--x--x--x---|

Guitar 2
e|---------------------------------------------------------------------------------------------------------|
B|---------------------------------------------------------------------------------------------------------|
G|---------------------------------------------------------------------------------------------------------|
D|--7--7--7--7--3-3-3-2-------7--7--7--7--3-3-3-2-------7--7--7--7--3-3-3-2-------7--7--7--7--3-3-3-2------|
A|--7--7--7--7--3-3-3-2-------7--7--7--7--3-3-3-2-------7--7--7--7--3-3-3-2-------7--7--7--7--3-3-3-2------|
D|--7--7--7--7--3-3-3-2-------7--7--7--7--3-3-3-2-------7--7--7--7--3-3-3-2-------7--7--7--7--3-3-3-2------|


[Pre-Chorus]
Soon came a day under skies that were grey...Fueled my fires and I grabbed my pliers, and I'm lit!

Guitar 1
e|--------------------------------------------------------------------------------------------|
B|--------------------------------------------------------------------------------------------|
G|--------------------------------------------------------------------------------------------|
D|--7--7--9--10---3--3--3--2---------(X4)-----------------------------------------------------| 
A|--7--7--9--10---3--3--3--2------------------------------------------------------------------|
D|--7--7--9--10---3--3--3--2------------------------------------------------------------------|

Guitar 2
e|--------------------------------------------------------------------------------------------|
B|--------------------------------------------------------------------------------------------|
G|--------------------------------------------------------------------------------------------|
D|-----------------------------------(X4)-----------------------------------------------------|
A|--------------------------------------------------------------------------------------------|
D|--7--7--9--10---3--3--3--2------------------------------------------------------------------|


[Chorus]

I made my own machine; Yes, we're building steam; I hate the same routine
Guitar 1
e|--------------------------------------------------------------------------------------------|
B|--------------------------------------------------------------------------------------------|
G|--------------------------------------------------------------------------------------------|
D|--7--7--9--10---3--3--3--2----------------------(X4)----------------------------------------| 
A|--7--7--9--10---3--3--3--2------------------------------------------------------------------|
D|--7--7--9--10---3--3--3--2------------------------------------------------------------------|

Guitar 2
e|--------------------------------------------------------------------------------------------|
B|--------------------------------------------------------------------------------------------|
G|--14--14--16--16--17------------------------------------------------------------------------|
D|----------------------15--15--15--15--14--------(X4)----------------------------------------|
A|--------------------------------------------------------------------------------------------|
D|--------------------------------------------------------------------------------------------|


[Solo]


[Chorus]
I made my own machine; Yes, we're building steam; I hate the same routine

Guitar 1
e|--------------------------------------------------------------------------------------------|
B|--------------------------------------------------------------------------------------------|
G|--------------------------------------------------------------------------------------------|
D|--7--7--9--10---3--3--3--2----------------------(X4)----------------------------------------| 
A|--7--7--9--10---3--3--3--2------------------------------------------------------------------|
D|--7--7--9--10---3--3--3--2------------------------------------------------------------------|

Guitar 2
e|--------------------------------------------------------------------------------------------|
B|--------------------------------------------------------------------------------------------|
G|--14--14--16--16--17------------------------------------------------------------------------|
D|----------------------15--15--15--15--14--------(X4)----------------------------------------|
A|--------------------------------------------------------------------------------------------|
D|--------------------------------------------------------------------------------------------|


[Outro]


Guitar 1
e|--------------------------------------------------------------------------------------------|
B|--------------------------------------------------------------------------------------------|
G|--7--7--7--7--10-10-10-10-------------------------------------------------------------------|
D|--7--7--7--7--10-10-10-10------------------(fade)-------------------------------------------|
A|--7--7--7--7--8--8--8--8--------------------------------------------------------------------|
D|--7--7--7--7--x--x--x--x--------------------------------------------------------------------|



Guitar 2
e|--------------------------------------------------------------------------------------------|
B|--------------------------------------------------------------------------------------------|
G|--14--14--16--16--17------------------------------------------------------------------------|
D|----------------------15--15--15--15--14---(fade)-------------------------------------------|
A|--------------------------------------------------------------------------------------------|
D|--------------------------------------------------------------------------------------------|


************************************

| x  Dead note

************************************
Suggest correction
Give kudos to tab author, rate the tab!
1 2 3 4 5
comments
print report bad tab
guest
You may want to rate the tab now too:
select rating
Wanna post a correction for this tab? Suggest correction