Oops, an error
Loading. Please wait.

Blood Fixing The Bled Tab

281 views 3 this week
no commentswrite comment
1 2 3 4 5
please rate
add to favorites
launch autoscroll
font size
0
reset
how to read this tab
guitar tuner
Tab Pro tools
  • play this tab
  • loop segment
  • change instrument
  • show fretboard
  • metronome
×
Best way to learn
"Blood Fixing The Bled"
Autoscroll
slow
fast
+/-
esc
set tempo
stop
Contributor

Tuning B E A D F# B

Intro (0:00) play twice
|----------------------------------|
|----------------------------------|
|----------------------------------|
|----------------------------------|
|----------------------------------|
|-1-1-1-1-1-1-1-1--1--1--1-1-1-1-1-|
  . . . . . . . . . . . . . . .

Riff 1a (0:04)
|--------------------------------------------------|
|--------------------------------------------------|
|--------------------------------------------------|
|-------------------------2------------------------|
|-------------------------3-------------5h7h10-6r--|
|-0-0--0-1-0--0-1-0--0--0----0-0--0-1-0------------|
  . . . . . . . . . .        . . . . .

Riff 1b (0:08)
|---------------------------------------------------|
|---------------------------------------------------|
|---------------------------------------------------|
|-------------------------2-------------------------|
|-------------------------3----------------5--5--4--|
|-0-0--0-1-0--0-1-0--0--0----0-0--0-1-0--0-3--3--2--|
  . . . . . . . . . .        . . . . .

Riff 1a x 1 (0:12)
Riff 1b x 1 (0:16)

Riff 2a (0:20)
|-----------------------------------------|
|-----------------------------------------|
|-----------------------------------------|
|--------------------------------7p5p2----|
|-2-2--2-2--7p5p2-5-3----2-2--2--------3--|
|-0-0--0-0------------3--0-0--0-----------|
  . . . .         . .    . . .

Riff 2b (0:24)
|------------------------------------------------------|
|------------------------------------------------------|
|------------------------------------------------------|
|------------------------------------------------------|
|------2----7p5p2-5-3-2--------------------------------|
|-3p0--0----------------5--5-5-3--3-3-2--2-2-1--1-1-3--|
        x
Riff 3a (0:29)
|-----------------------------------------------------------|
|-----------------------------------------------------------|
|-----------------------------------------------------------|
|----------------------------------------------7p5p2--------|
|-----------------7p5p2-5-3--------------------------3------|
|-0-0-0-0-0-0-0-0-----------3--0-0-0-0-0-0-0-0---------0-3--|
  . . . . . . . .       . .    . . . . . . . .       . .

Riff 3b (0:33)
|------------------------------------------------------------|
|------------------------------------------------------------|
|------------------------------------------------------------|
|------------------------------------------------------------|
|-----------------7p5p2-5-3-2--------------------------------|
|-0-0-0-0-0-0-0-0-------------5--5-5-3--3-3-2--2-2-1--1-1-3--|
  . . . . . . . .       . .

Riff 4a (0:38)
|--------------------------------------------------|
|--------------------------------------------------|
|--------------------------------------------------|
|--------------------------------------------------|
|-------------------------3-------------5h7h10-6r--|
|-0-0--0-1-0--0-1-0--0--0----0-0--0-1-0------------|
  . . . . . . . . . .        . . . . .

Riff 4b (0:41)
|---------------------------------------------------|
|---------------------------------------------------|
|---------------------------------------------------|
|---------------------------------------------------|
|-------------------------3----------------5--5--4--|
|-0-0--0-1-0--0-1-0--0--0----0-0--0-1-0--0-3--3--2--|
  . . . . . . . . . .        . . . . .

Riff   4a   x   1   (0:44)
Riff   4b   x   1   (0:47)
Riff   1a   x   1   (0:50)
Riff   1b   x   1   (0:52)

Riff 5a (0:54)
|---------------------------------------------------------------|
|---------------------------------------------------------------|
|---------------------------------------------------------------|
|-------------------------------------------------------5--5--5-|
|--------2---------2---------2---------2----------------3--3--3-|
|-0-0--0-0--0-0--0-0--0-0--0-0--0-0--0-0--3--0-3"---5"----------|
  . . .     . . .     . . .     . . .          .    .

Riff 5b (1:02)
|----------------------------------------------------------|
|----------------------------------------------------------|
|----------------------------------------------------------|
|-------------------------------------------------------5--|
|--------2---------2---------2---------2----------------3--|
|-0-0--0-0--0-0--0-0--0-0--0-0--0-0--0-0--3--0-3"---5"-----|
  . . .     . . .     . . .     . . .          .    .

Riff 6 (1:10) play 4 times
|------------------------|
|------------------------|
|------------------------|
|------------------------|
|-5--4--3--2--5--4--3\2--|
|-3--2--1--0--3--2--1\0--|
Riff 7a (1:18) play twice
|---------------------------------------|
|---------------------------------------|
|---------------------------------------|
|---------------------------------------|
|------------3"--5--4--3--2--5--4--3\2--|
|-1"--3"-4"------3--2--1--0--3--2--1\0--|

Riff 7b (1:26)
|---------------------------------------|
|---------------------------------------|
|---------------------------------------|
|---------------------------------------|
|-----3"---------5--4--3--2--5--4--3\2--|
|-1"-----4"--3"--3--2--1--0--3--2--1\0--|

Riff 7a x 1/2 (1:31)
Riff 6 x 1 (1:35)

Riff 8a (1:41)
|----------------------------------------------------------------------|
|----------------------------------------------------------------------|
|----------------------------------------------------------------------|
|----------------------------------------------------------------------|
|-------------7\5-------------7\5-3-2-------------7\5-3-3-3-3-2-2-2-2--|
|-000-000-000-----000-000-000---------000-000-000----------------------|
  ... ... ...     ... ... ...     . . ... ... ...     . . . . . . . .

Riff 8b (1:45)
|------------------------------------------------------------------|
|------------------------------------------------------------------|
|------------------------------------------------------------------|
|------------------------------------------------------------------|
|-------------3-3---------3-3-3-3-------------666------------------|
|-111-111-111-----111-111---------444-444-4-4-----333-333-3-3-3-3--|
  ... ... ...     ... ...         ... ... ... ... ... ... . . . .

Riff 8a x 1 (1:49)
Riff 8b x 1 (1:54)

Riff 9a (1:58)
|-------------------------------------|
|-------------------------------------|
|-------------------------------------|
|-------------------------------------|
|-2-2--2-2--7p5p2-5-3----2-2--2----8--|
|-0-0--0-0------------3--0-0--0--0-6--|
  . . . .         . .    . . . .

Riff 9b (2:03)
|------------------------------------------|
|------------------------------------------|
|------------------------------------------|
|------------------------------------------|
|-2-2--2-2--7p5p2-5-3-------5---------4ph--|
|-0-0--0-0------------3--3-----3--2--------|
  . . . .         . .

Riff 9a x 1 (2:07)
Riff 9b x 1 (2:12)
Intro x 1 (2:16)

Riff 10a (2:24) play 4 times
|---------------------------|
|---------------------------|
|---------------------------|
|---------------------------|
|---------------------------|
|-0-0--0-0-0-0--0--0-0-0-0--|
  . . . . . . . . . . .
Intro x 1 (2:32)

Riff 10b (2:37)
|----------------------------------------------------------------------------|
|----------------------------------------------------------------------------|
|----------------------------------------------------------------------------|
|----------------------------------------------------------------------------|
|----------------------------------------------------------------------------|
|-0-0--0-0-0-0--0--0-0-0-0-0-0--0-0-0-0--0--0-0-0-0-1-1--1-1-1-1--1--1-1-1-1-|
  . . . . . . . . . . . . . . . . . . . . . . . . . . . . . . . . .

---------------------------|
---------------------------|
---------------------------|
---------------------------|
---------------------------|
-4-4--4-4-4-4--4--4-4-4-4--|
 . . . . . . . . . . .

Riff   1a   x   1   (2:44)
Riff   1b   x   1   (2:48)
Riff   1a   x   1   (2:52)
Riff   1b   x   1   (2:56)

End (3:00)
|----------------------------|
|----------------------------|
|----------------------------|
|----------------------------|
|-5--4--3--5--4--3--5--4--3--|
|-3--2--1--3--2--1--3--2--1--|

End.

Tab Legend
. - palm mute
\ - slide down to
/ - slide up to
h - hammer on
t - tap
ph - pinched harmonic
^ - Hold bend
r release bend
~ - vibrato bend
() - ghost note, sustained note
" - tremolo note
b - Bend
f - full bend
h - half bend
q - quarter bend
^ - Hold bend
r - release bend
comments
We did not receive enough feedback on this tab! Please rate:
print report bad tab
1 2 3 4 5
I want to post or [tab]
guest
You may want to rate the tab now too:
select rating
Please do not post tabs as comments. Select "correction" instead!