Oops, an error
Loading. Please wait.

Charted Carnal Effigy Tab

127 views 1 this week
1 commentread comment
1 2 3 4 5
please rate
add to favorites
launch autoscroll
font size
0
reset
how to read this tab
guitar tuner
Autoscroll
slow
fast
+/-
esc
set tempo
stop
Help us to improve Ultimate-Guitar.com Take our survey!
×
Contributor
starnerd1214 9,874
    
Tuning: B E A D F# B

Riff A1:
                            _____________________
|Gtr1                   x3                      1|
|-------------------------|----------------------|
|-------------------------|----------------------|
|-----4-----4-----3-------|-----4----------------|
|-222---532---5-3---6-5-3-|-222---532------------|
|-------------------------|------------2-3-6-5-3-|
|-------------------------|------------0-1-4-3-1-|
| ...   ...   . .   . . . | ...    ...      . .   |
|Gtr2                     |                       |
|-------------------------|----------------------|
|-------------------------|----------------------|
|-------------------------|----------------------|
|-------------------------|----------------------|
|-----2-----2-----1-------|-----2------2-3-6-5-3-|
|-000---310---3-1---4-3-1-|-000---310--0-1-4-3-1-|
  ...   ...   . .   . . .    ...   ...      . .

  ______________________________
|Gtr1                          2|
|-------------------------------|
|-/6---5-3----------------------|
|----------5-4-2--5---4-2-------|
|-------------------------6-5-3-|
|-------------------------------|
|-------------------------------|
|                                 |
|Gtr2                             |
|-------------------------------|
|-/6---5-3----------------------|
|----------5-4-2--5---4-2-------|
|-------------------------6-5-3-|
|-------------------------------|
|-------------------------------|




Riff B:               ___________________ ___________________
                                         1|                  2|
|--------------------|--------------------|--------------------|
|--------------------|--------------------|--------------------|
|----------5---------|--------------------|-----ph-------------|
|-2--------5---------|-4--------5------.--|-4--------3---------|
|-2--------3---------|-4--------5-----44--|-4---2bh--3---------|
|-0------------------|-2--------3-----22--|-2--------1---------|
                                      ..
Riff C:

|Gtr1
|-------------------------------|-------------------------------|
|-------------------------------|-------------------------------|
|--------------4------4---4-3---|-------------------------------|
|----2-5-2-4-5------2---2-----5-|----2-5-2-4-5-4----2-5-2-4-5-4-|
|----------------3--------------|-------------------------------|
|-0-----------------------------|-3--------------2--------------|
|    . . . . .      .   .       |    . . . . .      . . . . .   |
|Gtr2                           |                               |
|-------------------------------|-------------------------------|
|-------------------------------|-------------------------------|
|-------------------------------|-------------------------------|
|----------------4--------------|-2--------------1--------------|
|-2--------------6--------------|-3--------------2--------------|
|-0-----------------------------|-------------------------------|


Riff D:                          ______________________________
                                                              1|
|-------------------------------|-------------------------------|
|-------------------------------|-------------------------------|
|-------------------------------|-------------------------------|
|-2----2---2p1---3----2---2p1---|-6----5---5p4---5------6-------|
|-2--------------3--------------|-6--------------5------6-------|
|-0--0---0-----0-1--0---0-----0-|-4--0---0-----0-3----0-4---0-0-|
     .   .     .    .   .     .      .   .     .      .     . .
 ______________________________
                              2|
|-------------------------------|
|-------------------------------|
|-------------------------------|
|-6----5---5p4---5------3-------|
|-6--------------5------3-------|
|-4--0---0-----0-3----0-1---0-0-|
     .   .     .      .     . .


Riff E:

|Gtr1
|-----------------------------------|
|-----------------------------------|
|-9---------------------------------|
|---7h9-10p9p7--------4h5-----------|
|--------------10p9p7-----5h7-------|
|-----------------------------8p7p5-|
|                                   |
|Gtr2                               |
|-----------------------------------|
|-----------------------------------|
|-----------------------------------|
|-----------------------------------|
|-2--2--2--2--2--2-3--3--3--3--3--3-|
|-0--0--0--0--0--0-1--1--1--1--1--1-|
     . . . . .        . . . . .
 __________________________________


|Gtr1                             1 |
|-----------------------------------|
|-----------------------------------|
|-8---------------------------------|
|---7h9-10p9p7--------4h5-----------|
|--------------10p9p7-----5h7-------|
|-----------------------------8p7p5-|
|                                   |
|Gtr2                               |
|-----------------------------------|
|-----------------------------------|
|-----------------------------------|
|-----------------------------------|
|-6--6--6--6--6--6-5---5--5-6--6--6-|
|-4--4--4--4--4--4-3---3--3-4--4--4-|
     . . . . .         . .     . .

  ________________________________________
|Gtr1                                    2|
|-----------------------------------------|
|-----------------------------------------|
|-8-------------------8-------------------|
|---7h9-10p9p7----------7h9-10p9p7--------|
|--------------10p9p7--------------10p9p7-|
|-----------------------------------------|
|                                           |
|Gtr2                                       |
|-----------------------------------------|
|-----------------------------------------|
|-----------------------------------------|
|-----------------------------------------|
|-6---6--6--6--6--6--5----5--5--3----3--3-|
|-4---4--4--4--4--4--3----3--3--1----1--1-|
       . . . . .           . .        . .


Riff F:               ___________________ __________________
                                      1,3|                  2|
|--------------------|--------------------|-------------------|
|--------------------|--------------------|-------------------|
|--------------------|--------------------|-------------------|
|-9------------------|-8------------------|-8--------8--------|
|-7-9-10-9-8-9----.--|-6-9-10-9-8-9----.--|-6-9-10-9-6-9-10-9-|
|---7--8-7-6-7-0000--|---7--8-7-6-7-0000--|---7--8-7---7--8-7-|
             . ....               . ....
 ___________________
                   4|
|--------------------|
|--------------------|
|--------------------|
|-8------------7-----|
|-6-9-10-8-9---5-----|
|---7--8-6-7---------|


Riff G1:             __________________ __________________
                                      1|                  2|
|-------------------|-------------------|-------------------|
|-------------------|-------------------|-------------------|
|-------------------|-------------------|-------------------|
|-5--------4--------|-2--------1--------|-5----7p5-4--------|
|-7--------6--------|-3--------2--------|-------------------|
|-------------------|-------------------|-------------------|
Riff G2:             __________________ __________________
                                      1|                  2|
|-------------------|-------------------|-------------------|
|-------------------|-------------------|-------------------|
|-------------------|-------------------|-------------------|
|-5--------4--------|-2--------1--------|-5----7p5-4--------|
|-7--------6--------|-3--------2--------|-------------------|
|-------------------|-------------------|-------------------|
|                   |                   |                   |
|Gtr2               |                   |                   |
|-------------------|-------------------|-------------------|
|-------------------|-------------------|-------------------|
|-------------------|-------------------|-------------------|
|-5--------4--------|-2--------1--------|-5----7p5-4--------|
|-7-777777-6-666666-|-3-333333-2-222222-|-------------------|
|-------------------|-------------------|-------------------|
    ......   ......     ......   ......


Riff H:              __________________ _____________________
                                    1,3|                     2|
|-------------------|-------------------|----------------------|
|-------------------|-------------------|----------------------|
|-------------------|-------------------|----------------------|
|-------------------|-------------------|------------------ph--|
|----.-------.----.-|----.-------.----.-|----.-------4-4-4-----|
|-0000--000000-0000-|-0000--000000-0000-|-0000--0000-2-2-2-3bh-|
  .... ...... ....     .... ...... ....   .... .... . . .
 _____________________
                     4|
|----------------------|
|------------------ph--|
|----------------------|
|------------------5bh-|
|----.-------4-4-4-----|
|-0000--0000-2-2-2-----|
  .... .... . . .


Rhy. Fill 1:

|-------------------|-----------------|
|-------------------|-----------------|
|-------------------|-----------------|
|-------------------|---------------.-|
|----.-----10-----.-|----.-----9--2-2-|
|-0000--0------0000-|-0000--0-----0-0-|
  .... .       ....   .... .      . .


Solo Backing 1:

|------------------------|-----------------------|
|------------------------|-----------------------|
|------------------------|-----------------------|
|------------------------|-----------------------|
|-------10--7-------9--6-|-------7--3-------6--2-|
|-0-0-0-------0-0-0------|-0-0-0------0-0-0------|
  . . .       . . .        . . .      . . .
Solo Backing 2:

|-----------------------|-----------------------|
|-----------------------|-----------------------|
|-----------------------|-----------------------|
|-------5----------4----|-------2----------1----|
|-------7----------6----|-------3----------2----|
|-0-0-0------0-0-0------|-0-0-0------0-0-0------|
  . . .      . . .        . . .      . . .

|-----------------------|-----------------------|
|-----------------------|-----------------------|
|-----------------------|-----------------------|
|-5----------------4----|-------2----------1----|
|-7----------------6----|-------3----------2----|
|------0-0-0-0-0-0------|-0-0-0------0-0-0------|
       . . . . . .        . . .      . . .


Rhy. Fill 2:

|-------------------|
|-------------------|
|-------------------|
|-------------------|
|----.--------.-----|
|-0000-----0000-----|


Solo:   The bars should match up with the backing, but it's best to
        listen to the CD for the correct timing.


|--------------------------|---------------------------|
|--------------------------|---------------------------|
|------12--9\------14--11\-|------16--12\------17--14\-|
|--------------------------|---------------------------|
|--------------------------|---------------------------|
|--------------------------|---------------------------|


|--------------------------------|----------15bhr-----------14~|
|-20bh-20bh--r-17----------12-13-|----12/13--------17-16-17----|
|-----------------11-12-14-------|-14--------------------------|
|--------------------------------|-----------------------------|
|--------------------------------|-----------------------------|
|--------------------------------|-----------------------------|


|~~~~~-15--12\-----14--17\-|----15--19---17191517141514------|
|--------------------------|---------------------------15----|
|--------------------------|-----------------------------16~-|
|--------------------------|---------------------------------|
|--------------------------|---------------------------------|
|--------------------------|---------------------------------|


|--------------------------|-----------------------------|
|-17bhr------16h17\13------|-12h13p12--------------------|
|--------------------------|---------14p12p11------------|
|--------------------------|-----------------14p12p10\9~-|
|--------------------------|-----------------------------|
|--------------------------|-----------------------------|
|----------------------------------------|
|----------------------------------------|
|---------------9-12p11p9----------------|
|-------9-10-12-----------12p10p9-9h10-9-|
|-10-12----------------------------------|
|----------------------------------------|
   . . . . . .

|-------------------------------------------------------------------|
|-------------------------------------------------------------------|
|-14p12p11-12p11p9--------------------------------------------------|
|-----------------14p12p10-12p10p9-14p12p10-12p10p9-----------------|
|--------------------------------------------------14p12p10-12p10p9-|
|-------------------------------------------------------------------|


|------------------|
|------------------|
|------------------|
|------------------|
|-7----------------|
|------------------|


Riff A2:
                            _____________________
|Gtr1                   x3                      1|
|-------------------------|----------------------|
|-------------------------|----------------------|
|-----4-----4-----3-------|-----4----------------|
|-222---532---5-3---6-5-3-|-222---532------------|
|-------------------------|------------2-3-6-5-3-|
|-------------------------|------------0-1-4-3-1-|
| ...   ...   . .   . . . | ...    ...      . .   |
|Gtr2                     |                       |
|-------------------------|----------------------|
|-------------------------|----------------------|
|-------------------------|----------------------|
|-------------------------|----------------------|
|-----2-----2-----1-------|-----2------2-3-6-5-3-|
|-000---310---3-1---4-3-1-|-000---310--0-1-4-3-1-|
  ...   ...   . .   . . .    ...   ...      . .


Song Structure:

Riff   A1
Riff   B
Riff   C        (x2)
Riff   D        (x3)
Riff   E
Riff   F
Riff   G1
Riff   G2
Riff   D        (x2)
Riff   F
Riff   H
Rhy.   Fill 1
                    _
Solo Backing 1 (x4) | Solo played over this section and
Solo Backing 2       | comes in on 2nd time of playing
Rhy. Fill 2         _| Solo Backing 1

Riff A2         (x2)
Legend:
. - palm mute           / - slide up to
\ - slide down to       ~ - vibrato
h - hammer on           b - Bend
p - pull off            Suffixes for bend
t - tap                 f - full bend     h - half bend
ph - pinched harmonic   q - quarter bend t - tap bend
* - see comment         ^ - Hold bend     r release bend
x - Stuccatto           ~ - vibrato bend
, - slight palm mute    () - ghost note, sustained note
" - tremolo note        <> - Trill
nh - natural harmonic   . - (above note) staccato
comments
We did not receive enough feedback on this tab! Please rate:
print report bad tab
1 2 3 4 5
1 comment total.
0 reply
ruker 3,368 wrote on January 23 2013, 04:04 pm

Whoever this user is, they jacked this tab from www.RiversOfGore.com

I want to post or [tab]
guest
You may want to rate the tab now too:
select rating
Please do not post tabs as comments. Select "correction" instead!