Oops, an error
Loading. Please wait.

Engineering The Dead Tab

307 views 1 this week
1 commentread comment
1 2 3 4 5
3 more votes to show rating
add to favorites
launch autoscroll
font size
0
reset
how to read this tab
guitar tuner
Autoscroll
slow
fast
+/-
esc
set tempo
stop
Help us to improve Ultimate-Guitar.com Take our survey!
×
Tuning: D G C F A D

Riff1
|-------------------------------|-----------------------------|
|-------------------------------|-----------------------------|
|-------------------------------|-----------------------------|
|---------3---4-----------------|-----------------5\6/5-------|
|-3-0-4-0---0---0-3-4-0-2-0-3-0-|-5-5\6/5-5\6/5\6-3\4/3-------|
|-------------------------------|-3-3\4/3-3\4/3\4-------5-4-3-|
                                                        . . .

|--------the-last-part----------|
|-------------------------------|
|---------------4---4-5-9-8-----|
|---------4-5-6---6---------9-8-|
|-5-5\6/5-----------------------|
|-3-3\4/3-----------------------|

Riff2
|------------------|-------------------------|
|------------------|-------------------------|
|------------------|-------------------------|
|------------------|-------------------------|
|-----4-----3--5\4-|-------2p3h5-------5p6h8-|
|-0-2---0-2----3\2-|-2p3h5-------5p6h8-------|


|-------------------------------------------------------------|
|----9p8h6----------------------------------------------------|
|---------9p8h6-----------------------------------------------|
|--------------9p8h6\5--8-7-10--------------------------------|
|-----------------------6-5-8---------------------------------|
|-0-----------------------------733533333533733533333-7-5-3-5-|
  .

|------------------------------------------------------------|
|------------------------------------------------------------|
|-------3333344444----------4444455555----------3333344444---|
|------------------5-------------------6-------------------5-|
|-6-5-4---------------6-5-4---------------6-5-4--------------|
|-4-3-2---------------4-3-2---------------4-3-2--------------|
      .                   .                   .

|-------------------------------------------------|
|-------------------------------------------------|
|-------------------------------------------------|
|-------------------------------------------------|
|---------------------------------------------5---|
|-444443333111144444333311114444433331111-----3---|
                                              .
Riff3                                                  2 time
|------------------------------------------------|------------------|
|------------------------------------------------|------------------|
|------------------------------------------------|------------------|
|----------------------555---666---555---6666666-|------------------|
|-33333553366335533333----434---434---434--------|-8----8----8----8-|
|------------------------------------------------|-6-00-6-00-6-00-6-|



|---------------|------------------------------|
|---------------|------------------------------|
|-repeat riff 3-|------the last time-----------|
|---------------|------------------------------|
|---------------|-8----8------------5----------|
|---------------|-6-00-6-00-666-7-9---9-7-6----|


Riff4
|-------------------------------------------------------------------|
|-------------------------------------------------------------------|
|-------------------------------------------------------------------|
|-------------------------------------------------------------------|
|-------------------------------------------------------------------|
|-6666545777754566665457777545666654577775451111111111...-----------|



|-------------------------------------------------------------------|
|-------------------------------------------------------------------|
|-------------------------------------------------------------------|
|-888876799997678888767999976788887679999767------------------------|
|--------------------------------------------3-3-3-3----------------|
|--------------------------------------------1-1-1-1----------------|
                                             . . . .
|-------------------------------------------------------------------|
|-------------------------------------------------------------------|
|-------------------------------------------------------------------|
|-------------------------------------------------------------------|
|--3\44---3\44----3\4-----------------------------------------------|
|------66-----66------5-4-3-1-2-3-----------------------------------|


Riff5
|-------------------------------------------------------------------|
|-------------------------------------------------------------------|
|-------------------------------------------------------------------|
|------------------------------4------------------------------------|
|--------445533334-----5----------------33443333-3\4---3\5---3\4----|
|-3333333----------333---33333---222222----------1\2-0-1\3-0-1\2----|


Riff6
|---------------------------------------------------------|
|---------------------------------------------------------|
|---------------------------------------------------------|
|----------5"---------------------4"----------------------|
|----5"-6"----6"-5"-6"------4"-5"----5"-4"----------------|
|-3"---------------------2"------------------7"-6"-2"-5"--|



|---------------|---------------|
|---------------|---------------|
|---------------|-the-last-time-|
|-repeat riff 6-|---------------|
|---------------|---------------|
|---------------|-7"-6"-5"-2"---|
Riff7
|----------------|-------------------|
|----------------|-------------------|
|----------------|---the-last-time---|
|----------------|-------------------|
|---------6-5-3--|-------------3-2---|
|-3333333-4-3-1--|--3333-4-3-4-----3-|
  ....... . .


Riff8
|-------------------------------------------------------------------|
|-------------------------------------------------------------------|
|-------------------------------------------------------------------|
|-----------------------------------8-------------------------------|
|-7h8p7h8p7h8p7h8-6h7p6h7p6h7p6h7p6-6-----7--4--10--9\10/9----------|
|-------------------------------------8-7-5--2--8---7\8/-7----------|


|-------------------------------------------------------------------|
|-------------------------------------------------------------------|
|-------------------------------------------------------------------|
|-----------------------------------8-------------------------------|
|-7h8p7h8p7h8p7h8-6h7p6h7p6h7p6h7p6-6---ah----4-4---5-4-3-4---------|
|-------------------------------------8-7.--0-2-2-0-3-2-1-2---------|
                                      .

Riff9
|-----------------------------------|-----------------|
|-----------------------------------|-----------------|
|-----------------------------------|-the-second-time-|
|-----------------------------------|-----------------|
|-------------------8\9---5\6-------|-10\11--5\6---ah-|
|-0-000000-0-000000-6\7-0-3\4-0-3-6-|-8-\9-0-3\4-0-1.-|



|-------------------------------------|
|-----------the-last-part-------------|
|-------------------------------------|
|-------------------6-----------------|
|-------------------4-5---------------|
|-4-444444-4-444444---3--3-4-6-4-3-4--|


Riff10
|-----------------------|
|-----------------------|
|-----------------------|
|-----------------------|
|--------------6-5-4-5--|
|-0"-1"-3"-0"--4-3-2-3--|


Riff11
|---------------------------------------|
|---------------------------------------|
|---------------------777777778---------|
|---------------------555555556---------|
|----------6------------------------6-4-|
|-444444454-54444444------------0-0-4-2-|
                                . . . .
Riff12
|----------------------------|------------------------|
|----------------------------|------------------------|
|----------------------------|------the-final-part----|
|----------------------------|------------------------|
|-----------7h8--------------|--------------6-5-4-5-2-|
|-4"-5"-4h5-----4"-5"-4"-3"--|-0"-1"-3"-0"--4-3-2-3-0-|
                                            . . . .

End of the song.

Tab Legend

. - palm mute
\ - slide down to
/ - slide up to
h - hammer on
t - tap
ph - pinched harmonic
^ - Hold bend
r release bend
~ - vibrato bend
() - ghost note, sustained note
" - tremolo note
b - Bend
f - full bend
h - half bend
q - quarter bend
^ - Hold bend
r - release bend
Suggest correction
Give kudos to tab author, rate the tab!
1 2 3 4 5
comments
print report bad tab
1 comment total.
0 reply
ruker 3,458 Jan 23, 2013 04:04 PM

Whoever this user is, they jacked this tab from www.RiversOfGore.com

guest
You may want to rate the tab now too:
select rating
Wanna post a correction for this tab? Suggest correction