Oops, an error
Loading. Please wait.

Enterrement Of An Idol Tab

1,029 views 1 this week
no commentswrite comment
1 2 3 4 5
please rate
add to favorites
launch autoscroll
font size
0
reset
how to read this tab
guitar tuner
Autoscroll
slow
fast
+/-
esc
set tempo
stop
Help us to improve Ultimate-Guitar.com Take our survey!
×
Author
---------------------------------------------------------------------------
                             Enterrement Of An Idol - Aborted
----------------------------------------------------------------------------
Tabbed by: Cameron R.

Tuning: Drop A ( A E A D F# B )

Not really the greatest, but I figured this out pretty quickly. I was just trying 
to get some Strychnine.213 tabs out. So this is really meant to be a starting point...

First Chord:

B |----|
F#|----|
D |----|
A |----|
E |-0--|
A |-0--|

Riff 1 - GTR 1
                                                         1.          2.
B |-----------------------------------------------------|-----------|-----|
F#|-----------------------------------------------------|-----------|-----|
D |-----------------------------------------------------|-----------|-----|
A |-----------------------------------------------------|-----------|-----|
E |--2-2-1-1-1h2p1---2-2-1-1-1h3p1--5-5-4-4-4h5p4---5-5-|-4-4-4h5p4-|-2-4-|
A |-0---------------0--------------0--------------0-----|-----------|-----|
    .               .              .              .
Riff 1 - GTR 2 (First time around only)

B |---------------------------------------------------------------------|
F#|---------------------------------------------------------------------|
D |---------------------------------------------------------------------|
A |--4-4-3-3---------4-4-3-3--------7-7-6-6---------7-7---6-6-----------|
E |--2-2-1-1---------2-2-1-1--------5-5-4-4---------5-5---4-4-----------|
A |-------------------------------------------------------------9\------|

Riff 2 - 8x

B |------------------------------------|
F#|------------------------------------|
D |------------------------------------|
A |------------------------------------|
E |-0-2-0-2-0--2/3-0-3-2-0-------------|
A |-0-2-0-2-0--2/3-0-3-2-0-------------|
    
Riff 3 - GTR 1 2x

B |-------------------------------------------------------------|
F#|-------------------------------------------------------------|
D |-------------------------------------------------------------|
A |-1------2------4----------2-1-1------2-----4-----------------|
E |-1------2------4--2p1h2p1-----1------2-----4--2p1h2p1-2-1----|
A |-1------2------4--------------1------2-----4-----------------|

Riff 3 - GTR 2 2x 

B |-------------------------------------------------------------|
F#|-------------------------------------------------------------|
D |-------------------------------------------------------------|
A |-1-1----2-2----4----------2-1-1-1----2-2---4-----------------|
E |-1------2------4--2p1h2p1-----1------2-----4--2p1h2p1-2-1----|
A |-1------2------4--------------1------2-----4-----------------|

Repeat Riff 1 With first ending twice, and no second ending.

Repeat Riff 2 8x

Riff 4  4x (after watching them play this live, I dont think this riff is correct, but its a start)

B |-------------------------------------------------|
F#|-------------------------------------------------|
D |-------------------------------------------------|
A |----------2---------2------------2--------2-2-2--|
E |----------2---------2------------2--------2-2-2--|
A |-0-0-0-0----0-0-0-0----0-0-0-0-0----0-0-0--------|
    . . . .    . . . .    . . . . .    . . .
Riff 5
        V                      V
B |-----5----------------------5----------|
F#|-----6----------------------6----------|
D |-----7------2---------------7---2------|
A |-0---8------2----3----0-----8---2--3---|
E |-0---5------0----3----0-----5---0--3---|
A |-0---------------3----0------------3---|

Riff 6 Repeat as needed, Tempo varies

B |---------------|
F#|---------------|
D |------2--------|
A |-0----2----3---|
E |-0----0----3---|
A |-0---------3---|

Repeat Riff 2 3x

Outro

B |----------------|
F#|----------------|
D |----------------|
A |--------------3-|
E |-0-2-0-2-0--0-3-|
A |-0-2-0-2-0--0-3-|
    . . . . .  . .


| .  Palm mute
| /  slide up
| \  slide down
| h  hammer-on
| p  pull-off
| ~  vibrato
| +  harmonic
| x  Mute note
| V  Brush Up
===============================================================================
Suggest correction
Give kudos to tab author, rate the tab!
1 2 3 4 5
comments
print report bad tab
guest
You may want to rate the tab now too:
select rating
Wanna post a correction for this tab? Suggest correction