Oops, an error
Loading. Please wait.

Exhuming The Infested Tab

version 1
version 1

Whole song

Interactive

296 views 1 this week
no commentswrite comment
1 2 3 4 5
2 more votes to show rating
add to favorites
launch autoscroll
font size
0
reset
how to read this tab
guitar tuner
Autoscroll
slow
fast
+/-
esc
set tempo
stop
Help us to improve Ultimate-Guitar.com Take our survey!
×
Tuning D G C F A D

Intro (0:00) play twice
|-----------------------------------------------------|
|-----------------------------------------------------|
|-----------------------------------------------------|
|--------------44-------------------------------------|
|-4-3--4-3--4----33--2--4-3--4-3--4-------------------|
|-2-1--2-1--2------4----2-1--2-1--2--0000000000000000-|

Riff 1a (0:07) play twice
                     [x3]
|-----------------------|---------------------|
|-----------------------|---------------------|
|-----------------------|---------------------|
|-4"----------4"--------|-4"------------------|
|----2"-1"-2"----1"-0"--|----2"-1"-2"-----1"--|
|-----------------------|-------------3"------|


Riff 1b (0:15) play twice
                     [x3]
|-----------------------|--------------|
|-----------------------|--------------|
|-----------------------|--------------|
|-4"----------4"--------|-4"-----------|
|----2"-1"-2"----1"-0"--|----2"-1"-2"--|
|-----------------------|--------------|

Riff 2 (0:22)
              [x2]              [x4]
|----------------|-----------------|
|----------------|-----------------|
|----------------|-----------------|
|----------------|-----------------|
|-3---6---5---2--|-----------------|
|-3---6---5---2--|-3"--6"--5"--2"--|

Riff 3a (0:33)
|-----------------------------------------------------------|
|-----------------------------------------------------------|
|-----------------------------------------------------------|
|-----------------------------------------------------------|
|-------------3--------------2--------------3-----3"-2"-3"--|
|-3-0-2-0-1-0----3-0-2-0-1-0----3-0-2-0-1-0----5"-----------|
    .   .   .      .   .   .      .   .   .

Riff 3b (0:37)
|--------------------------------------------------------|
|--------------------------------------------------------|
|--------------------------------------------------------|
|--------------------------------------------------------|
|-------------3--------------2--------------3--6--5--3---|
|-3-0-2-0-1-0----3-0-2-0-1-0----3-0-2-0-1-0----6--5--3---|
    .   .   .      .   .   .      .   .   .    . .
Riff   3a   x   1   (0:41)
Riff   3b   x   1   (0:45)
Riff   1a   x   2   (0:49)
Riff   1b   x   1   (0:57)
Riff   3a   x   1   (1:05)
Riff   3b   x   1   (1:09)
Riff   3a   x   1   (1:13)
Riff   3b   x   1   (1:17)

Riff 4a (1:21)
|-----------------------------------------------------------------|
|-----------------------------------------------------------------|
|-----------------------------------------------------------------|
|-----------------------------------------------------------------|
|-3---2---3---1---3---2---3---1ph---3---2---3---1---3---2---2-----|
|-3---2---3---1---3---2---3---------3---2---3---1---3---2---0-----|
  .   .   .       .   .   .         .   .   .       .   .

Riff 4b (1:29)
|-----------------------------------------------------------|-------|
|-----------------------------------------------------------|-|
|-----------------------------------------------------------|-------|
|-3---2---3---1---3---2---3---1ph---3---2---3---1---3---2---|-------|
|-3---2---3---1---3---2---3---------3---2---3---1---3---2---|-------|
  .   .   .       .   .   .         .   .   .       .   .

Riff 5 (1:52)
                       [x2]                      [x2]
|-------------------------|-------------------------|
|-------------------------|-------------------------|
|-------------------------|-------------------------|
|-------------------------|-------------------------|
|-------------2<5>--------|-------------2<5>--------|
|-3<6>--2<5>--------1<4>--|-3<6>--2<5>--------1<4>--|

                       [x2]                      [x2]
|-------------------------|-------------------------|
|-------------------------|-------------------------|
|-------------------------|-------------4<7>--------|
|-------------------------|-5<8>--4<7>--------3<6>--|
|-------------2<5>--------|-------------------------|
|-3<6>--2<5>--------1<4>--|-------------------------|

Riff 6a (2:07)
|-----------------------------------------|
|-----------------------------------------|
|---------------3"------------------------|
|-1-2--2"-5"-4"----2"-1"-----2"-5"-4"-----|
|-1-2---------------------2-----------6"--|
|-------------------------0---------------|

Riff 6b (2:11)
|--------------------------------------------|
|--------------------------------------------|
|---------------3"---------------------------|
|-1-2--2"-5"-4"----2"-1"-----2"-5"-4"--3--0--|
|-1-2---------------------2------------3--0--|
|-------------------------0------------------|

Riff 7a (2:15) play twice
|---------------------------------------|
|---------------------------------------|
|---------------------------------------|
|---------------------------------------|
|-2"-5"-4"-5"-2"-5"-----2"-5"-4"-2"-----|
|-------------------6"--------------3"--|
Riff 7b (2:23)
|---------------------------------------|
|---------------------------------------|
|---------------------------------------|
|---------------------------------------|
|-2"-5"-4"-5"-2"-5"-----2"-5"-4"-2"-----|
|-------------------6"--------------3"--|

|---------------------------------------|
|---------------------------------------|
|-4"-7"-6"-7"-4"-7"-----4"-7"-6"-4"-----|
|-------------------8"--------------5"--|
|---------------------------------------|
|---------------------------------------|

Riff 7a x 1/2 (2:27)

Riff 8a (2:31)
|-------------------------------------------------|
|-------------------------------------------------|
|-------------------------------------------------|
|-4--3--2h5-1h4-4--3--2h5-1h4-------5"--------4"--|
|-2--1----------2--1-------------4---------4------|
|-----------------------------3---------3---------|
  . .           . .           . .       . .

Riff 8b (2:36)
|-----------------------------------------------|
|-----------------------------------------------|
|-----------------------------------------------|
|-4--3--2h5-1h4-4--3--2h5-1h4-------5"--4"------|
|-2--1----------2--1-------------4----------5"--|
|-----------------------------3-----------------|
  . .           . .           . .       . .

Riff   8a   x   1   (2:40)
Riff   8b   x   1   (2:44)
Riff   7a   x   1   (2:48)
Riff   7b   x   1   (2:56)

Riff 7c (3:00) play twice
|---------------------------------------|
|---------------------------------------|
|---------------------------------------|
|---------------------------------------|
|-2"-5"-4"-5"-2"-5"-----2"-5"-4"----3---|
|-------------------6"-----------0"-3---|
                                    x

Riff   2 x 1 (3:03)
Riff   3a x 1 (3:15)
Riff   3b x 1 (3:19)
Riff   3a x 1 (3:23)
Riff   3b x 1 (3:27)

Riff 9a (3:31) play twice
|--------------------|
|--------------------|
|--------------------|
|--------------------|
|-3----6----5--------|
|-3----6----5--------|

Riff 9b (3:44) play twice
|-----------------------|
|-----------------------|
|-----------------------|
|-----------------------|
|-----------------------|
|-3"----6"----2"--------|
Solo begins (3:58)
Riff 9a x 2 (3:58)
End (4:24)
Sample (4:25)
End of track (5:32)
Tab Legend

. - palm mute
\ - slide down to
/ - slide up to
h - hammer on
t - tap
ph - pinched harmonic
^ - Hold bend
r release bend
~ - vibrato bend
() - ghost note, sustained note
" - tremolo note
b - Bend
f - full bend
h - half bend
q - quarter bend
^ - Hold bend
r - release bend
Suggest correction
Give kudos to tab author, rate the tab!
1 2 3 4 5
comments
print report bad tab
guest
You may want to rate the tab now too:
select rating
Wanna post a correction for this tab? Suggest correction