Oops, an error
Loading. Please wait.

I35 Tab

1,381 views 1 this week
1 commentread comment
1 2 3 4 5
please rate
add to favorites
launch autoscroll
font size
0
reset
how to read this tab
guitar tuner
Autoscroll
slow
fast
+/-
esc
set tempo
stop
Help us to improve Ultimate-Guitar.com Take our survey!
×
Author
Song: I35
by: Aborted
Album: Strychnine.213

Here's my interpretation one of my personal favorites from this album.

-------------------|-------------------------------------------------------|
-------------------|-------------------------------------------------------|
-------------------|-------------------------------------------------------|
---9--8----9--8-12-|-------------------------------------------------------|
---7--6----7--6-10-|---7--6----7--6--10----7--6----9--8----7--6----7--6--10|
000-00--000-00-----|000-00-0000-00-00--0000-00-0000-00-0000-00-0000-00-00--|
... ..  ... ..      ... .. .... .. ..  .... .. .... .. .... .. .... .. ..

-------------------------|
-------------------------| Something like that.
-------------------------|
-------------------------|
----7--6----4-2-4-5-4-2--|
0000-00-000-2-0-2-3-2-0--| x2
.... .. ...       . . .

------------------------------------------------------------|
------------------------------------------------------------| Probably a 
------------------------------------------------------------| little off.
-----------------------------------------2h3p2--------------|
6-----2-----656-6------2-3-5-6-----656-6------3232-2h3p2----|  
4-000-0-000-434-4-0000-0-1-3-4-000-434-4----------------3232| x4
  ...   ... ...   .... . . .   ... ...        ....      ....

-------------------------------------------------|
-------------------------------------------------|
------------7-7-7-7-3-2--------------------------|
------------5-5-5-5-1-0--------------------------|
2-2-2-2-2-2-------------5-5-5-5-5-5-3-3-3-6-6-6--|
0-0-0-0-0-0-------------3-3-3-3-3-3-1-1-1-4-4-4--|
                    . .           

------------------------------------------------|
------------------------------------------------|
------------------------------------------------|
------------7-7-7-7-3-2-------------------------|
2-2-2-2-2-2-5-5-5-5-1-0-5-5-5-5-5--2-4-2-4b5-2--|
0-0-0-0-0-0-------------3-3-3-3-3---------------| x2
                    . .

-------------------------------------------------------|
-------------------------------------------------------|
-------------------------------------------------------|
-------------------------------------------------------|
---7--6----7--6--10----7--6----9--8----7--6----7--6--10|
000-00-0000-00-00--0000-00-0000-00-0000-00-0000-00-00--|
... .. .... .. ..  .... .. .... .. .... .. .... .. ..

-------------------------|
-------------------------| 
-------------------------|
-------------------------|
----7--6----4-2-4-5-4-2--|
0000-00-000-2-0-2-3-2-0--| x2
.... .. ...       . . .

-----------------------------|
-----------------------------| Second time pickslide. Palm mute where 
-----------------------------| necessary.
--5---5-5/7/5---5------------|
4-3-4-3-3/5/3-4-3-4-4-5-4-2--|
2---2---------2---2-2-3-2-0--| x9

-----------------------------------------------------|
-----------------------------------------------------|
-----------------------------------------------------|
5-------5-----------------5-------5------------------|
3-------3-------2h3p2h3b4-3-------3------2h3p2-------|
-0000000-0000000-----------0000000-000000-----3p2h3--| 
 ....... .......           ....... ......

---------------------------------------------| Play this behind first solo.
---------------------------------------------|
---------------------------------------------|
5-------5-----------------5-------5----------|
3-------3-------2h3p2h3b4-3-------3-------7--|
-0000000-0000000-----------0000000-000000-5--| 
 ....... .......           ....... ......


-------------------------------------------------------------------|  
-------------------------------------------------------------------| 
-------------------------------------------------------------------| 
-------------------------------------------------------------------|
2h3p2-3ph~-2h3p2-3ph~-2h3p2h3b4--2h3p2-3ph~-2h3p2-3ph~-2h3p2-------|
------------------------------------------------------------3p2h3--| x2

(1st Solo)
I havn't really figured it out yet, but give me some time.

-----------------------------|
-----------------------------|  
-----------------------------| 
--5---5-5/7/5---5------------|
4-3-4-3-3/5/3-4-3-4-4-5-4-2--|
2---2---------2---2-2-3-2-0--| x3

------------------------------|
------------------------------|
------------------------------|
--8---8-8/10/8---8------------|
7-6-7-6-6/8-/6-7-6-7-7-8-7-5--|
5---5----------5---5-5-6-5-3--|

-----------------------------|
-----------------------------|  
-----------------------------| 
--5---5-5/7/5---5------------|
4-3-4-3-3/5/3-4-3-4-4-5-4-2--|
2---2---------2---2-2-3-2-0--| 

-------------------------------------------------|
-------------------------------------------------|
------------7-7-7-7-3-2--------------------------|
------------5-5-5-5-1-0--------------------------|
2-2-2-2-2-2-------------5-5-5-5-5-5-3-3-3-6-6-6--|
0-0-0-0-0-0-------------3-3-3-3-3-3-1-1-1-4-4-4--|
                    . .           

------------------------------------------------|
------------------------------------------------|
------------------------------------------------|  Play this behind second 
------------7-7-7-7-3-2-------------------------|  solo.
2-2-2-2-2-2-5-5-5-5-1-0-5-5-5-5-5--2-4-2-4b5-2--|
0-0-0-0-0-0-------------3-3-3-3-3---------------| x2
                    . .

(2nd Solo)
Again, give me some time.

-------------------| 
-------------------|
-------------------| And then finish it off with this.
---9--8----9--8-12-|
---7--6----7--6-10-|
000-00--000-00-----|
... ..  ... ..      
 
Woo! I feel positive about this one, if theres any corrections please let me know 
and please rate! 

Thank you.
Suggest correction
What's this?
You can suggest a correction to this tab. Community and Mods will review your correction and vote to approve or reject it.
comments
We did not receive enough feedback on this tab! Please rate:
print report bad tab
1 2 3 4 5
1 comment total.
0 reply
jonnowev 1,173 wrote on August 26 2011, 10:22 am

Can you please finish this tab?

guest
You may want to rate the tab now too:
select rating
Please do not post tabs as comments. Select "correction" instead!